Song name
# A B C D E F G H I J K L M N O P Q R S T U V W X Y Z

Lykke Li - Dance Dance Dance tab

Just sort of... Played around and liked the sound of this.
Hope it works for you (:

No capo.

Intro-
E|-------------------|
B|-------------------|
G|----2-------2------|
D|---0-------0-------|
A|--0-------0--------|
D|-0-------0---------|

Verse & chorus-
E|----------------------------------------|
B|----------------------0--------0--------|
G|----2-------2--------0--------0---------|
D|---0-------0--------0--------0----------|
A|--0-------0-----------------------------|
D|-0-------0--------5-------5-------------|

And thats it! All the way through.
Tap to rate this tab
 
# A B C D E F G H I J K L M N O P Q R S T U V W X Y Z