Lykke Li - I Follow Rivers tab

Lykke Li - I Follow Rivers (Intro)

Capo 5

e|----------------------------------------------------------------|
B|----------------------------------------------------------------|
G|----------------------------------------------------------------| x2
D|--2-2-----0---------------0-------------------------------------|
A|--------3---0----3-3-3--3---0---2-2-----0---------------0-------|
E|--------------------------------------3---0----3-3-3--3---0-----|

OR

e|----------------------------------------------------------------|
B|----------------------------------------------------------------|
G|----------------------------------------------------------------| x2
D|--7-7-----5---------------5-------------------------------------|
A|--------8---5----8-8-8--8---5---7-7-----5---------------5-------|
E|--------------------------------------8---5----8-8-8--8---5-----|
Tap to rate this tab
 
# A B C D E F G H I J K L M N O P Q R S T U V W X Y Z