Song name
# A B C D E F G H I J K L M N O P Q R S T U V W X Y Z

Lykke Li - I Follow Rivers Acoustic tab

this is 100% CORRECT, watch out the vid...

http://www.youtube.com/watch?v=5_7GpjWTxDg

Intro/Verse:

Dm               Am                   C

-10-x-10-x-10-x-10-x-5-x-5-x-5-x-5-5--8----|
-10-x-10-x-10-x-10-x-5-x-5-x-5-x-5-5--8----|
-10-x-10-x-10-x-10-x-5-x-5-x-5-x-5-5--9----|
-12-x-12-x-12-x-12-x-7-x-7-x-7-x-7-7--10---|
-12-x-12-x-12-x-12-x-7-x-7-x-7-x-7-7--10---|
-10-x-10-x-10-x-10-x-5-x-5-x-5-x-5-5--8----|

Chorus

 F     Dm    Am  C

-------10----5---8-------|
--10---10----5---8-------|
--10---10----5---9-------|
--10---12----7---10------|
--8----12----7---10------|
-------10----5---8-------|


In the "Oh Oh Oh" part he plays open chords

by braim
Tap to rate this tab
# A B C D E F G H I J K L M N O P Q R S T U V W X Y Z