Song name
# A B C D E F G H I J K L M N O P Q R S T U V W X Y Z

Lyle Workman - Fortunate Son tab

Fortunate Son – Lyle Workman & The Forest Rangers
Tabbed by: Patrick Rooney
Email: patrick.rooney36@gmail.com

Tuning: Standard

This is pretty rough and anyone that wants to add to this, please do. I love this
arrangement and it needs to be done! There are 2 Guitars playing in this song. I’m not 
much of
a finger picker so I can’t determine the finger picking of the backing guitar but I will 
list the chords. Please help make this complete if you can. This tab is in no way
perfect but it will get you in the ballpark. This is also my first tab, so be easy on me PLEASE.

Chords: G F C G


Guitar 1:
    G     F     C     G
E|--3-----1-----0-----3-------------------------------|
B|--3-----1-----1-----3-------------------------------|
G|--0-----2-----0-----0-------------------------------|
D|--0-----3-----2-----0-------------------------------|
A|--2-----3-----3-----2-------------------------------|
E|--3-----1-----x-----3-------------------------------|


Guitar 2:

E|-------------------------------------------------|
B|-----8-------6-------5--------3------------------|
G|-------------------------------------------------| x2
D|-7/9-----5/7-----3/5-----5/3---------------------|
A|-------------------------------------------------|
E|-------------------------------------------------|


E|-------------------------------------------------|
B|-----8--------6-------5------1-------------------|
G|-------------------------------------------------|
D|-7/9------5/7-----3/5----5/3---------------------| x2
A|-----------------------------------1-------------|
E|--------------------------------------3----------|

E|----------------------------------------------------|
B|-8-8-8—8h10---8\6—6/8---10/11-8—6-6/8-6/8-6h8-------|
G|----------------------------------------------------|
D|----------------------------------------------------|
A|----------------------------------------------------|
E|----------------------------------------------------|


E|----------------------------------------------------|
B|-8-8-8-8h10---8\6-6/8---10/11-8-6--6/8-6/8-6h8-6----|
G|-------------------------------------------------5-3|
D|----------------------------------------------------|
A|----------------------------------------------------|
E|----------------------------------------------------|


E|----------------------------------------------------|
B|-8-8-8---10-10-10p8—10/11-8-6--6/8-6/8-6h8----------|
G|----------------------------------------------------|
D|----------------------------------------------------|
A|----------------------------------------------------|
E|----------------------------------------------------|


E|----------------------------------------------------|
B|-8-8-8---10-10-10p8—10/11-8-6--6/8-6/8-6h8---6------|
G|----------------------------------------------5-3---|
D|----------------------------------------------------|
A|----------------------------------------------------|
E|----------------------------------------------------|

| /   slide up
| \   slide down
| h   hammer-on
| p   pull-off
| ~   vibrato
| +   harmonic
| x   Mute note
| b   Bend
| pb  Pre-bend
| br  Bend release
| pbr Pre-bend release
| brb Bend release bend
Tap to rate this tab
 
# A B C D E F G H I J K L M N O P Q R S T U V W X Y Z