Song name
# A B C D E F G H I J K L M N O P Q R S T U V W X Y Z

Lymphatic Phlegm - Growth Of The Mucous-membrane Ill Vein Tissue And Stomach Subjacent Fiber Tissue Layer tab

Lymphatic Phlegm
Pathologist's Cadaveric Fleshfeast
Growth Of The Mucous-Membrane Ill Vein Tissue And Stomach Subjacent Fiber
Tissue Layer

Copyright (c)  Bizarre Leprous Production 2002
Version 1.0 - 25.5.06

Transcribed By: Yaniv Dekel
Email:          lickywebster@yahoo.com


.  - palm mute           /  - slide up to
\  - slide down to       ~  - vibrato
h  - hammer on           b  - Bend
p  - pull off            Suffixes for bend
t  - tap                 f  - full bend    h - half bend
ph - pinched harmonic    q  - quarter bend t - tap bend
*  - see comment         ^  - Hold bend    r release bend
x  - Stuccatto           ~  - vibrato bend
,  - slight palm mute    () - ghost note, sustained note
"  - tremolo note        <> - Trill

Tuning E A D G B E

Riff A1 x2    Riff A2 x6    Segment ending
|-------------|-------------|------------------------------|
|-------------|-------------|------------------------------|
|-------------|-------------|------------------------------|
|-------------|-----5---4-3-|-last chord rings---/15-------|
|-----3---2-1-|-2-3-3-4-2-1-|--------------------/13-------|
|-0-1---2-----|-0-1---2-----|------------------------------|

Riff B x5
|-----------------------------------------------------------------|
|-----------------------------------------------------------------|
|-----------------------------------------------------------------|
|-------------------------4---3---------------------------5---4---|
|-------------------------2---1---------------------------3---2---|
|-0-0h1p0h1h2--h3p2p1h2p1---------0-0h1p0h1h2--h3p2p1h2p1---------|

Riff A2 x10

End with
|--------|
|--------|
|--------|
|-2------|
|-2------|
|-0------|

END
Tap to rate this tab
# A B C D E F G H I J K L M N O P Q R S T U V W X Y Z