Song name
# A B C D E F G H I J K L M N O P Q R S T U V W X Y Z

Lymphatic Phlegm - Intramyocardial Platelet Embolus Evidence tab

Lymphatic Phlegm
Pathologist's Cadaveric Fleshfeast
Intramyocardial Platelet Embolus Evidence

Copyright (c)  Bizarre Leprous Production 2002
Version 1.0 - 25.5.06

Transcribed By: Yaniv Dekel
Email:          lickywebster@yahoo.com


.  - palm mute           /  - slide up to
\  - slide down to       ~  - vibrato
h  - hammer on           b  - Bend
p  - pull off            Suffixes for bend
t  - tap                 f  - full bend    h - half bend
ph - pinched harmonic    q  - quarter bend t - tap bend
*  - see comment         ^  - Hold bend    r release bend
x  - Stuccatto           ~  - vibrato bend
,  - slight palm mute    () - ghost note, sustained note
"  - tremolo note        <> - Trill

Tuning E A D G B E

Riff A x4  (Put an emphasis on the first chord of each group)
|-------------------------------------------------------------------|
|-------------------------------------------------------------------|
|-------------------------------------------------------------------|
|-----------------7-7---7-7-7---7-----------------5-5---5-----------|
|-5-5---5-5-5---5-5-5---5-5-5---5-5-5---5-5-5---5-3-3---3-7-7---7---|
|-3-3---3-3-3---3-----------------3-3---3-3-3---3---------5-5---5---|

Fill x1
|----------------------------------|
|----------------------------------|
|----------------------------------|
|---------------------5-4-7-8------|
|-----3-2-5-6-----5-4-3-2-5-6-8-7--|
|-3-2---------5-6-3-2---------6-5--|

Riff B x4                            End segment with
|----------------------------------| |-----------------|
|----------------------------------| |-----------------|
|----------------------------------| |-----------------|
|-----5-4-7-8---------5-4-7-8------| |-----------------|
|-5-4-3-2-5-6-7-8-5-4-3-2-5-6-8-7--| |-5--let ring-----|
|-3-2---------5-6-3-2---------6-5--| |-3---------------|

Riff A x5
Riff B x5

End song with

|L
|-------------------|
|-------------------|
|-------------------|
|-------------------|
|-5--let ring----5--|
|-3--------------3--|
|
|R
|-------------------|
|-------------------|
|-------------------|
|-------------------|
|-5--let ring-------|
|-3-----------------|

END
Tap to rate this tab
 
# A B C D E F G H I J K L M N O P Q R S T U V W X Y Z