Song name
# A B C D E F G H I J K L M N O P Q R S T U V W X Y Z

Lyndsay Diaries - You Were Right tab

Capo 2

Verse
e|-------------------------------------------------------------------------|
B|-3--3--3--3--3--3--3--3--3-3--3-3--3-3---3-3-----------------------------|
G|-0--0--0--0--0--0--0--0--0-0--0-0--0-0---0-0-----------------------------|
D|-------------------------------------------------------------------------|
A|-2--2--3--3--2--2--3--3--2-2--3-3--2-2---2-2-----------------------------|
E|-------------------------------------------------------------------------|

Chorus
e|-2--3--2-2--3--2--3--2-2-3-----------------------------------------------|
B|-3--3--3-3--3--3--3--3-3-3-3--3--3--3--3---------------------------------|
G|-0--0--0-0--0--0--0--0-0-0-0--0--0--0--0---------------------------------|
D|-------------------------------------------------------------------------|
A|---------------------------2--2--3--3--3---------------------------------|
E|-------------------------------------------------------------------------|

Solo
e|-------------------------------------------------------------------------|
B|-------------------------------------------------------------------------|
G|-----2-----2-----2----2--0-0---------------------------------------------|
D|--0-----0-----0----0---------5-4-5-4-2-2-0-0-----------------------------|
A|---------------------------------------------5-2-5-5-7-5-----------------|
E|---------------------------------------------------------5/7-5-5-3-------|
Tap to rate this tab
 
# A B C D E F G H I J K L M N O P Q R S T U V W X Y Z