Song name
# A B C D E F G H I J K L M N O P Q R S T U V W X Y Z

Lyndsay Diaries - Illustrations Of Melbourne tab

Help us improve GuitareTab! Take a short survey!
Illustrations of Melbourne - Lyndsay Diaries
By:Anderw Mcshan(Guitarguyx182@aol.com)

Intro
e|---------5-3-2-----------5-7-5-3-2-----------------------------------------|
B|---------------3-----------------------------------------------------------|
G|---------------------------------------------------------------------------|
D|---------------------------------------------------------------------------|
A|---0-2-5-----------0-2-5---------------------------------------------------|
E|-3----------------3--------------------------------------------------------|

Verse
e|--------5-3-2-----------------2-5-3-2-------5-7-5-3-2----2/3/2--10-8-7-----|
B|--------------3--------------------------------------------------------8---|
G|---------------------------------------------------------------------------|
D|------------------x2-----------------------------------------------------x2|
A|--0-2-5-----------------0-2-5----------0-2-5-------------------------------|
E|-3--------------------3---------------3------------------------8-----------|

Part Where He Starts Strumming
e|-x--x--x---x-x-x--xx-xx-xx-xx-xx-xx----------------------------------------|
B|-x--x--x---x-x-x--xx-xx-xx-xx-xx-xx----------------------------------------|
G|-x--x--x---x-x-x--xx-xx-xx-xx-xx-xx----------------------------------------|
D|-9--9--9---7-7-7--12-12-12-10-10-10----------------------------------------|
A|-10-10-10--9-9-9--14-14-14-12-12-12----------------------------------------|
E|-x--x--x---x-x-x--xx-xx-xx-xx-xx-xx----------------------------------------|
Related for Illustrations Of Melbourne tab