Song name
# A B C D E F G H I J K L M N O P Q R S T U V W X Y Z

Lyndsay Diaries - Mixtapes And Memories tab

this is tab,is the best so far and it sounds exactly the same
there are some ways of doing this but i prefer this one.
rythm is up to you,just listen to the song and you will get it eventually.

song:mixtapes and memories
artist:lyndsay diaries

tuning:

D
A
Gb/f#
D
A
D

intro
verse

D |--0--0--0---0---0---0----|
A |--0--0--0---0---0---0----|
Gb|--8-10-12--12--10---8----|
D |--0--0--0---0---0---0----|
A |--0--0--0---9---7---5----|
D |--0--0--0---9---7---5----|

"and i thought about"
chrous
D |--0--0--0---|
A |--0--0--0---|
Gb|-10-12--8---|
D |--0--0--0---|
A |--7--9--5---|
D |--7--9--5---|

*then rythm changes but same chords

repeat verse

"the hours pass by in the rain..."

D |--0--0--0--0---|
A |--0--0--0--0---|
Gb|--8--8-12--8---|
D |--0--0--0--0---|
A |--5--4--9--5---|
D |--0--0--9--5---|

then it repeats chrous(rythm just varies)
 
last part
D |--0--0--0-12----| 
A |--0--0--0--0----|
Gb|--8-10-12-12----|
D |--0--0--0--0----|
A |--0--0--0--0----| 
D |--0--0--0--0----|

enjoy..

feel free to email for when u think there r some errors...but i dont think there is (mrtv0@yahoo.com)


-john aka casper



Tap to rate this tab
# A B C D E F G H I J K L M N O P Q R S T U V W X Y Z