Song name
# A B C D E F G H I J K L M N O P Q R S T U V W X Y Z

Lynyrd Skynyrd - The Needle And The Spoon tab

I did'nt see a good tab for the solo on here so I figured I'd post one.

e-------------------10--------10-------------------------------------------|
B----------------10---13p10------13p10----10-------------------------------|
G-------12B-12B~------------12---------12----12p10-------------------------|
D--------------------------------------------------12-12-------10-10-------|
A--------------------------------------------------------10h12-------------|
E--------------------------------------------------------------------------|

e--------------------------------------------------------------------------|
B--------------------------------------------------------------------------|
G--------------------------------------------------------------------------|
D------10-10----10-10----10-12~-10-12p10----10-----------------10-10-11-12-|
A---12-------12-------12-----------------12----10p8--------/12-------------|
E---------------------------------------------------10-10~-----------------|

e---------------------------------------------14p10--------10-----10-------|
B---------------------------------13p10-------------13-13B----13B----13B---|
G----10----10-12Brp10-12p10----10-------12p10------------------------------|
D-------12------------------12---------------------------------------------|
A--------------------------------------------------------------------------|
E--------------------------------------------------------------------------|

e----------------10--------------------------------------------------------|
B----13Br-10-13~----13p10-13p10----10-------------------13----13----13-----|
G-------------------------------12----10QB-------10-/14----14----14--------|
D------------------------------------------12-12---------------------------|
A--------------------------------------------------------------------------|
E--------------------------------------------------------------------------|

e--------------------------------------------------14-10-10-13B-13HB-------|
B-------13-13----15p13-15p13-15p13----13-------13B~---10-10----------------|
G----14-------14-------------------14----12/10-----------------------------|
D--------------------------------------------------------------------------|
A--------------------------------------------------------------------------|
E--------------------------------------------------------------------------|

e----10-------10--------------------------------10-13p10----13p10---13p10----|
B-------10-13----13B-13p10----10-------------------------13-------13------13-|
G--------------------------12----12Br-10HB--/11------------------------------|
D----------------------------------------------------------------------------|
A----------------------------------------------------------------------------|
E----------------------------------------------------------------------------|

e----13p10----13p10----13-15-13---------------13B-13B-13B-13HB-10----------|
B----------13-------13----------15-15~-----15----------------------13------|
G--------------------------------------/16---------------------------------|
D--------------------------------------------------------------------------|
A--------------------------------------------------------------------------|
E--------------------------------------------------------------------------|

e----10h13p10----10h13p10~~~~~(10)-----------------------------------------|
B-------------13-----------------------------------------------------------|
G--------------------------------------------------------------------------|
D--------------------------------------------------------------------------|
A--------------------------------------------------------------------------|
E--------------------------------------------------------------------------|

Key:
B=Bend
~=Vibrato
/=Slide
QB=Quarter Bend
HB=Half Bend
p=Pull Off
h=Hammer On

Hope this helps. It's my first tab so take it easy on me.
Tap to rate this tab
# A B C D E F G H I J K L M N O P Q R S T U V W X Y Z