Guitaretab - guitar tabs
Song name
# A B C D E F G H I J K L M N O P Q R S T U V W X Y Z

Lynyrd Skynyrd - Was I Right Or Wrong tab

Was I Right Or Wrong - Lynyrd Skynyrd

  intro/outro      start of first verse
G|-----------------|---18---|
D|-----------------|18------|
A|2-4----24--2-4---|--------|
E|------4----------|--------|
[ Tab from: http://www.guitaretab.com/l/lynyrd-skynyrd/10909.html ]
                                     this fill is played
  verse riff                         between verses somewhere
G|----------------------------------|---6---|
D|----------------------------------|454----|
A|2-4----4---------24----------2-4--|----4--|
E|------4----02-2-4----02-2-4-------|-------|


The louder verses have the same basic pattern as the above verse riff.
I hope this gets you started in the right direction to play this song.
Related for Was I Right Or Wrong tab
Was I Right Or Wrong chords by Lynyrd Skynyrd