Song name
# A B C D E F G H I J K L M N O P Q R S T U V W X Y Z

Lynyrd Skynyrd - Preachers Daughter tab

-------------------------------------------------------------------------------
			     Preacher's Daughter - Lynyrd Skynyrd
-------------------------------------------------------------------------------
Tabbed by: greasy_fingers
Email: grande_latte_3000@hotmail.com

Tuning: Standard
Key: A
   (remember to do the pick-slide at the start!)
e|----------------------------------------------------------------|
B|----5---7----5--0-3-0-3-------------5---7----5--0-3-0-3---------|
G|----5---7----5--0-3-0-3-------------5---7----5--0-3-0-3---------|
D|----5---7----5--0-3-0-3-------------5---7----5--0-3-0-3---------|
A|--0---0----0----------------------0---0----0--------------------|
E|-------------------------3-4-5---------------------------3-4-5--|
                 pm______________                pm______________

e|-----------------------|
B|------------77---------|
G|------------77---------|
D|--7-7-9-109-77-9-109-7-|
A|--5-5-5-5-5--5-5-5-5-5-|
E|-----------------------|

e|----------------------------------------------------------------|
B|----5---7----5--0-3-0-3-------------5---7----5--0-3-0-3---------|
G|----5---7----5--0-3-0-3-------------5---7----5--0-3-0-3---------|
D|----5---7----5--0-3-0-3-------------5---7----5--0-3-0-3---------|
A|--0---0----0----------------------0---0----0--------------------|
E|-------------------------3-4-5---------------------------3-4-5--|
                 pm______________                pm______________
                 
e|-----------------------|
B|------------77---------|
G|------------77---------|
D|--7-7-9-109-77-9-109-7-|
A|--5-5-5-5-5--5-5-5-5-5-|
E|-----------------------|

e|----------------------------------------------------------------|
B|----5---7----5--0-3-0-3-------------5---7----5--0-3-0-3---------|
G|----5---7----5--0-3-0-3-------------5---7----5--0-3-0-3---------|
D|----5---7----5--0-3-0-3-------------5---7----5--0-3-0-3---------|
A|--0---0----0----------------------0---0----0--------------------|
E|-------------------------3-4-5---------------------------3-4-5--|
                 pm______________                pm______________

e|-----------------------------------------------------------------------|
B|------------99--------------------99-----------------------------------|
G|------------99--------------------99-----------------------------------|
D|--9-9-11121199-1112119--9-9-11121199-1112119-77777777------------------|
A|--7-7-7-7-7--7-7-7-7-7--7-7-7-7-7--7-7-7-7-7-55555555----------3-4-5-0-|
E|-------------------------------------------------------0-3-4-5---------|

The rest is pretty straightforward, I'm sure if you can play this, you can
figure out the other parts of the song. I may tab the rest of it out sometime
if I get the chance.

===============
|pm  palm mute|
===============
Tap to rate this tab
 
# A B C D E F G H I J K L M N O P Q R S T U V W X Y Z