Song name
# A B C D E F G H I J K L M N O P Q R S T U V W X Y Z

Lynyrd Skynyrd - Truck Drivin Man tab

 Truck Drivin' Man
 Lynyrd Skynyrd


|-------------------------------------------------------------------|
|-------------------------------------------------------------------|
|-------------------------------------------------------------------|
|-0/2-2-4-2-2-4-2-2-4-2-2-4-2-4-4-6-4-4-6-4-4-6-4-4-5-6-7-7-9-7-9-7-|
|-0---0-0-0-0-0-0-0-0-0-0-0-0-2-2-2-2-2-2-2-2-2-2-2-3-4-5-5-5-5-5-5-|
|-------------------------------------------------------------------|

|--------------------------------------------------------------|
|--------------------------------------------------------------|
|--------------------------------------------------------------|
|-9-9-11-11-9--------------------------------------------------|
|-7-7-7-7-7-7-7-7-9-7-9-7-10-9-7-9-----------------------------|
|-------------5-5-5-5-5-5-5--5-5-5-----------------------------|   Repeat 4 times

For the chorus play.....

|------------|
|------------|
|------------|
|-9-9-7-9-9-7|
|-5-5-5-5-5-5|
|------------|

Then after, "the best that he can" play:
                               %
|-------------------------------------------------------------------|
|-------------------------------------------------------------------|
|-------------------------------------------------------------------|
|-9-9-7-2-2-4-4-5-5-6-6-7-9-7-7-9-7-7-9-7-7-9-2-2-4-2-4-4-6-4-5-6-7-|
|-5-5-5-0-0-2-2-3-3-4-4-5-5-5-5-5-5-5-5-5-5-5-0-0-0-0-2-2-2-2-3-4-5-|
|-------------------------------------------------------------------|

|--------------------------------------------|
|--------------------------------------------|
|--------------------------------------------|
|-7-9-7-9-9-9-11-11-9------------------------|
|-5-5-5-5-7-7-7--7--7-7-7-9-7-7-9-7-10-9-7-9-|
|---------------------5-5-5-5-5-5-5-5--5-5-5-|

|-------------------------------------------------------------------------|now play
|-------------------------------------------------------------------------|the part
|-----------------------2------------------------------2------------------|after %
|--------------------------9-9-7---------------------------2-2-4-4-5-5-6-6|
|-------2-------2-0-3h4--0-5-5-5-------2-------2-0-3h4---0-0-0-2-2-3-3-4-4|
|-0-3h4---0-3h4------------------0-3h4---0-3h4----------------------------| 
Now play from the part marked by the %
                                                                              
sorry I couldn’t tab the solo’s, now listen to the song to see
When to play what.

Have fun
Tap to rate this tab
 
# A B C D E F G H I J K L M N O P Q R S T U V W X Y Z