Guitaretab - guitar tabs
Song name
# A B C D E F G H I J K L M N O P Q R S T U V W X Y Z

Lynyrd Skynyrd - Seasons tab

Lynyrd skynyrd
The Seasons

It's quite easy so you should be good at it.


Intro

e|-------3----3-------3------3---------3-----3------3-----3--|
D|---------3------------3----------------3-----3-----3-------|
G|--------------0--------------0-----------------------------|
B|-0-2-3----3-----0h2-----2----------------------------------|
A|-------------------------------0h3------3------0h2----2----|
E|-----------------------------------------------------------|



Repeat

e|-------------(3)-----3--3---------------|
D|-----------3-------------3--------------|
G|-----0---0-----------------0------------|
B|-0h2---0---------------------0h2--0-----|
A|-------------------------------------0--|
E|----------------------------------------|




The chords used are:  D  C  G  Em


G
e ---|---|-x-|---|---|
B ---|---|---|---|---|
G ---|---|---|---|---|
D ---|---|---|---|---|
A ---|-x-|---|---|---|
E ---|---|-x-|---|---|	

[ Tab from: http://www.guitaretab.com/l/lynyrd-skynyrd/167232.html ]
D
e ---|-x-|---|---|---|
B ---|---|-x-|---|---|
G ---|-x-|---|---|---|
D ---|---|---|---|---|
A ---|---|---|---|---|
E ---|---|---|---|---|	


Em
e ---|---|---|---|---|
B ---|---|---|---|---|
G ---|---|---|---|---|
D ---|-x-|---|---|---|
A ---|-x-|---|---|---|
E ---|---|---|---|---|	


C
e ---|---|---|---|---|
B -x-|---|---|---|---|
G ---|---|---|---|---|
D ---|-x-|---|---|---|
A ---|---|-x-|---|---|
E ---|---|-o-|---|---|



C                  G
When ... ...... .. turning,

C                   G
And .. ... ... .... by,

D            C           D              C
And . ... .. reflection, see .. .. .... eye,

D                   C         Em       D
Know ... ... ...... come ..., has .... by.

C                         G
And .. ... .... ... ..... closely,

C                         G
You .... ... ... ..... .. shine,

D                       C        D                C
And ... .... ... ... .. longing, longing .... ... you,

D                C        Em             D
The season ..... come ... is as ..... .. you.


Have fun
Related for Seasons tab
Seasons chords by Lynyrd Skynyrd