Song name
# A B C D E F G H I J K L M N O P Q R S T U V W X Y Z

Lynyrd Skynyrd - Things Goin On tab

-------------------------------------------------------------------------------
			     Things goin' on - Lynyrd Skynyrd
-------------------------------------------------------------------------------
Tabbed by:jet21
Email:mikemrules9@msn.com

Tuning:standard
                                                 For parts like this below
                                                 I do a forward
                                                 and back picking but by the
                                                 time i come back ive alredy
                                                 released the finger on the
                                                 note so it is kinda muted
e|----12-----------------------12------------------------------10-10-----------|
B|-12----12----9--9-9-9--9--12-----12--9--9-9-9-------12-10-12-----------------|
G|-11b---11r---9--9-9-9--9--11b----11r-9--9-9-9--------------------------------|
D|--------------11-----11---------------11------11p9---------------------------|
A|-----------------------------------------------------------------------------|
E|-----------------------------------------------------------------------------|

e|----12------------------------------------12---------------------------------|
B|-12----12---9-----10-12-10-10----------12----12--9-9-------------------------|
G|-11b---11r--9--9-----------------9-----11b---11r-9-9--9----------------------|
D|-------------11--------------9h11-------------------11-----------------------|
A|-----------------------------------------------------------------------------|
E|-----------------------------------------------------------------------------|

e|-----------12---12---12---12---12---12---12----------------------------------|
B|-----------------------------------------------------------------------------|
G|-----9--11b--11b--11b--11b--11b--11b--11b--11br9-9----9----------------------|
D|-9h11---------------------------------------------9h11-----------------------|
A|-----------------------------------------------------------------------------|
E|-----------------------------------------------------------------------------|

e|----12---12---12---12---12-----------------10--------------------------------|
B|----------------------------------12-10-12----12-----------------------------|
G|-11b--11b--11b--11b--11b-----------------------------------------------------|
D|----------------------------9s11---------------------------------------------|
A|-----------------------------------------------------------------------------|
E|-----------------------------------------------------------------------------|

e|----12-----------------------------------------------------------------------|
B|-----------------------------------------------------------------------------|
G|-11b--11rp9-11-9-9-----9-----9-----9-----9-9-----9---------------------------|
D|-------------------9h11--9h11--9h11--9h11----9h11----------------------------|
A|-----------------------------------------------------------------------------|
E|-----------------------------------------------------------------------------|

e|----12-----------------------------------------------------------------------|
B|-----------------------------------------------------------------------------|
G|-11b--11rp9-11-9----------------------------9--------------------------------|
D|-----------------11-9-------------------9h11---------------------------------|
A|----------------------11p10p9-11----9s11-------------------------------------|
E|--------------------------------12-------------------------------------------|

e|-------------------12----12----12----12----12----12----12------------------|
B|------12-14------12----12----12----12----12----12----12--------------------|
G|-11s13---------13----13----13----13----13----13----13----------------------|
D|---------------------------------------------------------------------------|
A|---------------------------------------------------------------------------|
E|---------------------------------------------------------------------------|

e|-----12----12----12-------12---14brp12------19\----------------------------|
B|---12----12----12----12-14--14--------14-12--------------------------------|
G|-13----13----13----13------------------------------------------------------|
D|---------------------------------------------------------------------------|
A|---------------------------------------------------------------------------|
E|---------------------------------------------------------------------------|

e|-----12----12----12----12----12-------17-15-21-19-17-----------------------|
B|---12----12----12----12----12----------------------------------------------|
G|-13----13----13----13----13-----13s16--------------------------------------|
D|---------------------------------------------------------------------------|
A|---------------------------------------------------------------------------|
E|---------------------------------------------------------------------------|

e|-9s12-------------------12---------------------------------------------------|
B|-----12---------12--------12-------------------------------------------------|
G|-------11br9-11b--11rp9-----11brp9-------------------------------------------|
D|-----------------------------------------------------------------------------|
A|-----------------------------------------------------------------------------|
E|-----------------------------------12\---------------------------------------|


| /  slide up
| \  slide down
| h  hammer-on
| p  pull-off
| ~  vibrato
| +  harmonic
| x  Mute note
===============================================================================
Tap to rate this tab
 
# A B C D E F G H I J K L M N O P Q R S T U V W X Y Z