Song name
# A B C D E F G H I J K L M N O P Q R S T U V W X Y Z

Lynyrd Skynyrd - Simple Man Acoustic tab

The song is played in a 3 chord structed
you will make a chord formation and then pick the designated strings
there are no bar chords in the song
100% correct

Verse:

C
e------------------------------------------------------------------|
b---------------1--------------------------------------------------|
G---------0--------0-----------------------------------------------|
D------------2--------2--------------------------------------------|
A-0-2-3-----------------3------------------------------------------|
E------------------------------------------------------------------|

G
e-----------3------------------------------------------------------|
b--------------0---------------------------------------------------|
G-----------------0------------------------------------------------|
D-------------------0----------------------------------------------|
A-------2----------------------------------------------------------|
E---3--------------------------------------------------------------|

Am
e------------0----------------3------------------------------------|
b---------------1-----1---------1----------------------------------|
G------------------2-----2---------2-------------------------------|
D------2-------------------2---------------------------------------|
A--0---------------------------------------------------------------|
E------------------------------------------------------------------|

Chorus is the same chord progression strummed
Tap to rate this tab
# A B C D E F G H I J K L M N O P Q R S T U V W X Y Z