Song name
# A B C D E F G H I J K L M N O P Q R S T U V W X Y Z

Lynyrd Skynyrd - Still Unbroken tab

-------------------------------------------------------------------------------
			     Still Unbroken - Lynyrd Skynyrd
-------------------------------------------------------------------------------
Tabbed by: Ryan Carroll
Email:rcarroll.simpson@yahoo.com

Tuning:standard

this is my first tab, using this format that is... this song was just released not 
too long ago. It will be on the album god and guns coming this fall. this is an awesome song 

and my first full attempt at tabbing a song.this was just a quick look at the 
song. oh, and b is bend, but i assume that is common sense.Listen to the song and you can figure 

out timing issues. like i said this is my first attempt, so i hope it is not too 
confusing, these are just some of the main riffs... enjoy! i apologize if anything is wrong.

the song order: 1. intro(w/ intro riff 2)
                2. verse
                3. chorus
                4. intro riff 1 & 2
                5. verse
                6. chorus
                7. solo(coming soon, hopefuly)
                8. chorus(till end)
intro
(play this twice)
e|---------------------------------------------------------------------------|
B|---------------------------------------------------------------------------|
G|-----4--6------------------------4--6--------------------------------------|    
D|-----4--6---4---4\2----2--4------4--6--4--4\2-----2--4---------------------|
A|------------4---4\2-4--2--4-4----------4--4\2--4--2--4--4------------------|
E|--------------------4-------4------------------4--------4------------------|

intro Riff #2(comes in after the intro is played one through/play twice)
e|-----7--9----------------------7--9----------------------------------------|
B|------------7---5b5b-----------------7---5b-5b-----------------------------|
G|---------------------6b-------------------------6b(slight slide down)------|
D|---------------------------------------------------------------------------|
A|---------------------------------------------------------------------------|
E|---------------------------------------------------------------------------|
verse(unaware of the actual strum pattern, so just listen to the song)
e|--9----7---6--4---4---4---1------------------------------------------------|this plays twice
B|--9----9---7--6---5---7---2------------------------------------------------| during verse
G|---------------------------------------------------------------------------|
D|---------------------------------------------------------------------------|
A|----------------------------------*----------------7-----------------------|
E|------------------------------------7-9-7-9--7-9-9--9----------------------|
*plays through verse comes in right after intro

chorus
e|---------------------------------------------------------------------------|
B|---------------------------------------------------------------------------|
G|--4-4---------------4-4---------------4-4----------------4---------4-------|
D|--2-2-4-4---4---4---2-2-4-4--4**-6----2-2-4-4---4---4----2--2---6--2-4--6--|
A|------2-2---6---6-------2-2--6---4--------2-2---6---6-------4---4----2--4--|
E|---------------------------------------------------------------------------|

e|---9--7--------------------------------------------------------------------|
B|---------9--7--5-----------------------------------------------------------| **this plays as
G|------------------6-6b-----------------------------------------------------| that note is hit
D|---------------------------------------------------------------------------|
A|---------------------------------------------------------------------------|
E|---------------------------------------------------------------------------|
Tap to rate this tab
# A B C D E F G H I J K L M N O P Q R S T U V W X Y Z