Song name
# A B C D E F G H I J K L M N O P Q R S T U V W X Y Z

Lynyrd Skynyrd - Sweet Little Missy chords

Highlighted       Show chord diagrams
Band/Artist: Lynyrd Skynyrd
Song Title: Sweet Little Missy
Album Title: Street Survivors (1977)


N.C. = no chord


Chords used: 

     E9+                 A7                  B7
E||-------------------|-------------------|-------------------|
B||--8----------------|--5----------------|--7----------------|
G||--7----------------|--6----------------|--8----------------|
D||--6----------------|--5----------------|--7----------------|
A||--7----------------|--7----------------|--9----------------|
E||--0----------------|--5----------------|--7----------------|


  E7                  A5                  G5                  D5                
-------------------|-------------------|-------------------|-------------------|
-------------------|-------------------|-------------------|-------------------|
--7----------------|-------------------|-------------------|--7----------------|
--6----------------|--7----------------|--5----------------|--7----------------|
--7----------------|--7----------------|--5----------------|--5----------------|
--0----------------|--5----------------|--3----------------|-------------------|


  B5                 
-------------------||
-------------------||
-------------------||
--9----------------||
--9----------------||
--7----------------||



(Verse 1) 

  A7                                    E9+
  Why are you praying, my sweet morning dove

  A7                                  E9+
  Youíre so afraid, but so hungry for love

  B7                        A7  
  I can give you love baby, hugs and kisses, 
 
  B7                             A7
  I can give you everything that you been missing

  B7                    A7   N.C.
  Just donít be afraid,      oh

               E9+     A7     E9+    E7
  Sweet little missy



(Verse 2) 

  A7                                                   E9+  
  Sheís twenty years old and a full grown woman, sure enough

  A7                                            E9+
  Iím the one that wants her, are you ready for love

  B7                                 A7     
  Well Iím the one that wants you forever and a day

  B7            A7
  Come on baby, whatíd you say

  B7                    A7    N.C
  Just donít be afraid,       oh

               E9+     A7    E9+    E7
  Sweet little missy



(Chorus)

  A5             A5 G5  A5                 A5 G5   
  Sweet little missy,   Sheís saving her love

  A5                   A5 G5  A5            D5  G5  
  But giviní us hope like the lord up above

  A5                      A5 G5   A5            A5 G5  
  This ainít the worst thing that sheíll ever do

   B5
  ĎCause like a dollar bill you canít take it with you



(Guitar solo)
  
E9+            A7     E9+    A7
Ooooh, ooooh 


E9+    A7    E9+    A7    E9+    A7     


B7     A7    B7    A7    B7    A7    B5



(Piano Solo)  
   
E9+    A7    E9+    A7    E9+    A7


E9+    A7    


 
(Verse 3) 

  B7                                 A7
  Well Iím the one that wants you forever and a day
  
  B7            A7 
  Come on baby, whatíd you say

  B7                    A7   N.C.
  Just donít be afraid,      oh

               E9+    A7    E9+   E7
  Sweet little missy



(Verse 4) 

  A7                                       E9+
  Sheís so damn pretty, I canít take it no more

  A7                                  E9+ 
  You and me babe, giving my soul for sure

  B7                             A7 
  Well I can give you love baby, hugs and kisses 

  B7                             A7 
  I can give you everything that you been missing

  B7                    A7    N.C.
  Just donít be afraid,       oh

               E9+    A7    E9+    E7  
  Sweet little missy



(Chorus)

  A5             A5 G5  A5                 A5 G5   
  Sweet little missy,   Sheís saving her love

  A5                   A5 G5  A5            D5  G5  
  But giviní us hope like the lord up above

  A5                      A5 G5   A5            A5 G5  
  This ainít the worst thing that sheíll ever do

   B5
  ĎCause like a dollar bill you canít take it with you



(Outro)

  A7            E9+ 
  Oooh, Oooh

  A7            E9+ 
  Oooh, Oooh


  A7   E9+   A7   E9+


 *repeat till fade out*
Tap to rate this tab
# A B C D E F G H I J K L M N O P Q R S T U V W X Y Z