Song name
# A B C D E F G H I J K L M N O P Q R S T U V W X Y Z

Lynyrd Skynyrd - Storm tab

This is the tab for Lynyrd Skynyrd's "Storm", off their album God & Guns. Figured this 
with my friend and this is the first time I've made a tab, so I hope everything's right. Enjoy!

Standard Tuning (EBGDAE)

Riff (repeat 4 times)
E|------------------------|
B|------------------------|
G|------------------------|
D|-6------6---6------6----|
A|-------4----------4-----|
E|4-4h7-7----4-4h7-7--3b4-|

Verse (do this twice)
E|-------------------------------------------|
B|-------------------------------------------|
G|-------------------------------------------|
D|-6------6--6------6---6------6--6------6---|
A|-------4---------4----------4---------4----|
E|4-4h7-7--4--4h7-7----4-4h7-7--4--4h7-7--3b4|

Chorus
E|--------------------------------------------------------------------|
B|--------------------------------------------------------------------|
G|-9-9----11----13--9-9----11----13--9-9----11----13--9-9-9-9-9-9-9--6|
D|-9-9-xx-11-xx-13--9-9-xx-11-xx-13--9-9----11----13--9-9-9-9-9-9-9--6|
A|-7-7-xx-9--xx-11--7-7-xx-9--xx-11--7-7-xx-9--xx-11--7-7-7-7-7-7-7--4|
E|--------------------------------------------------------------------|
                ^^let this chord ring each time

Go through and do this all a second time, then after you've played the chorus the second 
do this:

Bridge
E|------------------------|
B|------------------------|
G|15-15-15-15-15-15--13-11|
D|15-15-15-15-15-15--13-11|
A|13-13-13-13-13-13--11-9-|
E|------------------------|

Enjoy!
Tap to rate this tab
 
# A B C D E F G H I J K L M N O P Q R S T U V W X Y Z