Lynyrd Skynyrd - Trust tab

Heres one of my favorite Skynyrd songs, off their Gimme Back My Bullets album.

Standard Tuning

Intro
E|-----------------------------------|
B|------------------------------7----|
G|----99--9-----9--------9------7----|
D|----99--9----9-9h11p9--9-7--7------|
A|9h11--11-9h11--------11--7h9----7--|
E|-------------------------------x7h9| x2

E|--------|
B|--------|
G|--------|
D|--------|
A|------7-|
E|7777h9-9| then the above part 2 more times

Verse
E|-----------------------|
B|-----------------------|
G|----99-9-7-------------|
D|----99-9-7-7-----------|
A|2/7-77x7x5x7---7h9p7---|
E|-----------5-/9-----9\5|  x3 then

E|----------------------|
B|----------------------|
G|----99-9-7------------|
D|----99-9-7-7-7777p5---|
A|2/7-77x7x5x7-------7-5|
E|-----------5----------|

Pre Chorus
E|-------------------------|
B|-------------------------|
G|9--99------99--77--------|
D|9--99------99--77--------|
A|7--77------77--55-7777775|
E|-xx--xxxxxx--xx---0505053|  x4

Chorus
E|---------------------|
B|---------------------|
G|-----------9-77\-----|
D|9-11-12-11-9-77\-----|
A|7-7--7--7--7-55\-----|
E|----------------03453|  x4

Solo 1
E|-------------------------15b1715b1715b1715b15--|
B|---------15b15b1715b1715b--------------------17|
G|----99--9--------------------------------------|
D|----99--9--------------------------------------|
A|9h11--11---------------------------------------|
E|-----------------------------------------------|

After that it goes back to the Verse, then Pre Chorus, then Chorus, and then the next solo.

Solo 2
E|--------------------------------------------------------------------|
B|--------------------------------------------------------------------|
G|2b-2b-2b-2b-2-0h2p0-0---------------------0-0-2-2b-2p0--/15\-/14-12-|
D|-------------------2-0h2-2-2---0-2-0-2p0-2-2----------2-------------|
A|----------------------------0h2-2-----------------------------------|
E|--------------------------------------------------------------------|

E|------------------------------------------15-17b-17b-17-15--17-17-17b-|
B|--------12------15--15-----15--15h17-17p15----------------------------|
G|--------12-14/16--16--16-16--16---------------------------------------|
D|14-12-14--------------------------------------------------------------|
A|----------------------------------------------------------------------|
E|----------------------------------------------------------------------|

E|15b-------------------------------------------------------|
B|---17-17-15-17-15-15--------------------------------------|
G|--------------------16p14--------14-----------------------|
D|-------------------------14-17-14--17-14-12---------------|
A|-------------------------------------------14-12--12b-12b\|
E|------------------------------------------------15--------|

E|-----------------------------------|
B|------------------------------7----|
G|----99--9-----9--------9------7----|
D|----99--9----9-9h11p9--9-7--7------|
A|9h11--11-9h11--------11--7h9----7--|
E|-------------------------------x7h9|  x2

Outro
E|----12
B|-7899
G|77899
D|77899
A|5----
E|-----
Tap to rate this tab
 
# A B C D E F G H I J K L M N O P Q R S T U V W X Y Z