Song name
# A B C D E F G H I J K L M N O P Q R S T U V W X Y Z

Lynyrd Skynyrd - Camin tab

e|-0--------------------0----x-0-0--0----x-0-0----------|
B|-3/5\3--0-------------0----x-0-0--0----x-0-0----------|
G|-----------2/4\2-0----0----x-0-0--0----x-0-0----------|
D|--------------------0h2----x-2-2--5----x-5-5----------|
A|--------------------0h2----x-0-2--3----x-0-3----------|
E|----------------------0----x-0-0--X----x-x-x----------|
  
e|-0----x---------------------0----x-0-0----------------| 
B|-0----x--3/5\3--0-----------0----x-0-0----------------|
G|-0----x------------2/4\2-0--0----x-0-0----------------|
D|-2----x---------------------5----x-5-5----------------|
A|-2----x---------------------3----x-0-3----------------|
E|-0----x---------------------x----x-x-x----------------|

Tap to rate this tab
 
# A B C D E F G H I J K L M N O P Q R S T U V W X Y Z