Song name
# A B C D E F G H I J K L M N O P Q R S T U V W X Y Z

Lynyrd Skynyrd - Sweet Home Alabama Acoustic tab

 ~ = strum   * = Hammer on    ^ = Pull off

      D           Cadd9         G
E------------|------------|------------|----------------------|
B-----3------|-----3------|-----3~-----|----------------------|
G-------2----|-------0----|-----0~-----|----------------------|
D-0-0--------|------------|-----0~-----|------0-2*-2^---------|
A------------|-3-3--------|-----2~-----|-0-*2---------2-2^-2*-|
E------------|------------|-3-3-3~-----|----------------------|

      D           Cadd9         G
E------------|------------|------------|----------------------|
B-----3------|-----3------|-----3~-----|----------------------|
G-------2----|-------0----|-----0~-----|--------0-------------|
D-0-0--------|------------|-----0~-----|------0---0-----------|
A------------|-3-3--------|-----2~-----|-0-2*-------2-2^------|
E------------|------------|-3-3-3~-----|----------------------|

If you want it to sound more like in the real song, mute the base string :
D in the D chord, A in the Cadd9, and E in the G, both times your picking them and then 
for the rest of the picks.

It's basiclly like this trough the whole song.

This is my first tab, hope i didn't make any misstakes, mail me on : nipmerlin@live.se 
you want to ask something.
Tap to rate this tab
 
# A B C D E F G H I J K L M N O P Q R S T U V W X Y Z