Song name
# A B C D E F G H I J K L M N O P Q R S T U V W X Y Z

Lynyrd Skynyrd - Cottonmouth Country tab

This is my first tab. This is just the main rhythm of the song. This song was never 
released by Lynyrd Skynyrd but look it up on youtube.
Tuning: half step down

eb|--------------------------------------------------------------------------|
Bb|--------------------------------------------------------------------------|
Gb|--------------------------------------------------------------------------|
Db|-----2---4---2---4/7---4---2---4------------------------------------------|
Ab|--------------------------------------------------------------------------|
Eb|--2-----------------------------------------------------------------------|

eb|--------------------------------------------------------------------------|
Bb|--------------------------------------------------------------------------|
Gb|--------------------------------------------------------------------------|
Db|-----2---4---2---4/9---7---2---4------------------------------------------|
Ab|--------------------------------------------------------------------------|
Eb|--2-----------------------------------------------------------------------|




************************************

| /   slide up
| \   slide down
| h   hammer-on
| p   pull-off
| ~   vibrato
| +   harmonic
| x   Mute note
| b   Bend
| pb  Pre-bend
| br  Bend release
| pbr Pre-bend release
| brb Bend release bend

************************************
Tap to rate this tab
 
# A B C D E F G H I J K L M N O P Q R S T U V W X Y Z