Song name
# A B C D E F G H I J K L M N O P Q R S T U V W X Y Z

Lynyrd Skynyrd - Needle And The Spoon tab

{this is pretty much the rythm guitar}


e-------------------------------------------------------|
B-------------------------------------------------------|
G-----7-------5-----------------------------------------|    repeat 3x
D----7---------5--3-3-----------------------------------|
A---5----5\3-3--------5-5--3p0h3------------------------|
E-------------------------------------------------------|


e-------------------------------------------------------|
B-------------------------------------------------------|
G-----7-------5-----------------------------------------|
D----7---------5--3h5-3---------------------------------|
A---5----5\3-3----------5-5-----------------------------|
E-------------------------------------------------------|


     Riff
e-------------------------------------------------------|
B-------------------------------------------------------|
G---7---7---5-5-5-5--5-----10--10---7----7---5----------|
D---7---7---5-5-5-5--5-----10--10---7----7---5----------|
A---5---5---3-3-3-3--3--3--8---8----5----5---3----------|
E-------------------------------------------------------|


e-------------------------------------------------------|
B-------------------------------------------------------|
G---7---7---5-5-5-5--5-----10--10---7-------------------|
D---7---7---5-5-5-5--5-----10--10---7-------------------|
A---5---5---3-3-3-3--3--3--8---8----5-------------------|
E-------------------------------------------------------|


e-------------------------------------------------------|
B-------------------------------------------------------|
G---7---7---5-5-5-5--5-----10--10---7----7---5----------|
D---7---7---5-5-5-5--5-----10--10---7----7---5----------|
A---5---5---3-3-3-3--3--3--8---8----5----5---3----------|
E-------------------------------------------------------|


e-------------------------------------------------------|
B-------------------------------------------------------|
G---7---7---5-5-5-5--5-----10/12--10--7--7--------------|
D---7---7---5-5-5-5--5-----10/12--10--7--7--------------|
A---5---5---3-3-3-3--3--3---8/10--8---5--5--------------|
E-------------------------------------------------------|

     solo
                          repeat--------2x
e--------------------------------------------------------------------------
B--------------------------------------------------------------------------
G---7--7--7-7-7--7-/-9-/-10--10--10--10-\-5--5--5-5-5--/--6--/--7--7--x--5-
D---7--7--7-7-7--7-/-9-/-10--10--10--10-\-5--5--5-5-5--/--6--/--7--7--x--5-
A---5--5--5-5-5--5-/-7-/-8---8---8----8-\-3--3--3-3-3--/--4--/--5--5--x--3-
E--------------------------------------------------------------------------

     back to riff

      its a fun jam song to play..
Tap to rate this tab
 
# A B C D E F G H I J K L M N O P Q R S T U V W X Y Z