Song name
# A B C D E F G H I J K L M N O P Q R S T U V W X Y Z

Lynyrd Skynyrd - Sweet Home Alabama tab

----------------------------------------------------------------------------
Sweet Home Alabama - Lynyrd Skynyrd

----------------------------------------------------------------------------
Tabbed by: Malbrez
Email: cmbrez@hotmail.com

ive seen a lot of messed up tabs and a lot of CRUEL comments... those together
have inspired me not to Screw this up! RATE and COMMENT, thanks.

Tuning: Standard (is what i use because i tuned to the rest of my band)

Intro
e|--------------------------------------------------------------------------|
B|----3----------3----------------------------------------------------------|
G|------2-0--------0-------0------------------------------------------------|
D|0-0----------------0------------0h2p0-------------------------------------|
A|------------3-3-------------0h2--------2-0h2------------------------------|
E|---------------------3-3--------------------------------------------------|

e|--------------------------------------------------------------------------|
B|----3---------3-----------------------------------------------------------|
G|------2-0-------0-------0-----------0-2p0-0-4/5b--------------------------|
D|0-0---------------0-----------0-2p0---------------------------------------|
A|----------3-3-------------------------------------------------------------|
E|--------------------3-3---------------------------------------------------|

verse
e|-----------3--------------------------------------------------------------|
B|-----3-----3-----3--------------------------------------------------------|
G|-----2-----0-----0--------------------------------------------------------|
D|0-0--0-----------0------0-2p0-0-4p2---------------------------------------|
A|-------3-3----------0h2---------------------------------------------------|
E|-------------3-3----------------------------------------------------------|

e|-----------3--------------------------------------------------------------|
B|----3------3-----3--------------------------------------------------------|
G|----2------0-----0--------------------------------------------------------|
D|0-0-0------------0---------2-4~-------------------------------------------|
A|-------3-3-----------0-2h4------------------------------------------------|
E|-------------3-3----------------------------------------------------------|

                         
e|--------------------------------------I-----------------------------------|
B|--------------------------------------I-----------------------------------|
G|------2-2p0------0-0------------------I-----------------------------------|
D|0h2h4-------------------------4~------I------0----------------------------|
A|-----------3-3-------3--0h2h4---------I--0h2------------------------------|
E|---------------------------------(2~)-I-----------------------------------|

Chorus
e|-----------3--------------------------------------------------------------|
B|-----3-----3-----3--------------------------------------------------------|
G|-----2-----0-----0--------------------------------------------------------|
D|0-0--0-----------0------0h2p0---------------------------------------------|
A|-------3-3----------0h2-------3-------------------------------------------|
E|-------------3-3----------------------------------------------------------|

e|-----------3--------------------------------------------------------------|
B|-----3-----3-----3--------------------------------------------------------|
G|-----2-----0-----0--------------------------------------------------------|
D|0-0--0-----------0------0h2h4-0h2h4-0h2h4-0h2-0---------------------------|
A|-------3-3--------------------------------------3-------------------------|
E|-------------3-3----------------------------------------------------------|

e|-----------3--------------------------------------------------------------|
B|-----3-----3-----3--------------------------------------------------------|
G|-----2-----0-----0--------------------------------------------------------|
D|0-0--0-----------0------0h2p0---------------------------------------------|
A|-------3-3----------0h2-------3-------------------------------------------|
E|-------------3-3----------------------------------------------------------|

e|-----------3--------------------------------------------------------------|
B|-----3-----3-----3--------------------------------------------------------|
G|-----2-----0-----0--------------------------------------------------------|
D|0-0--0-----------0--------------------------------------------------------|
A|-------3-3----------------------------------------------------------------|
E|-------------3-3----------------------------------------------------------|

in going to try and add BOTH solos later but until then this is what i got.
thanks
Tap to rate this tab
 
# A B C D E F G H I J K L M N O P Q R S T U V W X Y Z