Guitaretab - guitar tabs
Song name
# A B C D E F G H I J K L M N O P Q R S T U V W X Y Z

Lynyrd Skynyrd - Workin For Mca tab

h   - hammer on
p   - pull off
b   - bend string up
bb  - 1 1/2 tone bend
H   - hold bend
r   - release bend
/   - slides
~   - vibrato
x   - play 'note' with heavy damping
(*) - harmonics


Intro (repeat twice)

e|----------------------------------------------------------|
B|----------------------------------------------------------|
G|----------------------------------------------------------|
D|--------------------------------2-2---4-------------------|
A|-------9\------2--2------7\-----0-0---2--(2)--------------|
E|-------7\------2--2------7\---------------0---------------|

e|----------------------------------------------------------|
B|----------------------------------------------------------|
G|----------------------------------------------------------|
D|------------------------------------2----2----------------|
A|-------2\----9\-----2--2----7\------0----2h4--(2)---------|
E|-------2\----7\-----2--2----7\-----------------0----------|


Lead

e|----------------------------------------------------------|
B|-----------12---/12~-------12bb---10---7/10\7~------------|
G|------/11-------------------------------------------------|
D|----------------------------------------------------------|
A|----------------------------------------------------------|
E|----------------------------------------------------------|

e|----------------------------------------------------------|
B|---------------------------------------------------7------|
G|-----9brp7--9-----7---9brb-------9brp7--9-----7--9---7----|
D|---------------9---------------------------9-----------9~-|
A|----------------------------------------------------------|
E|----------------------------------------------------------|


VERSE


e|----------------------------------------------------------|
B|----------------------------------------------------------|
G|----------------------------------------------------------|
D|----4--------------2--2----4------------------------------|
A|----2---5p4--2-----0--0----2---(2)------------------------|
E|----------------3---------------0-------------------------|

e|----------------------------------------------------------|
B|----------------------------------------------------------|
G|--------------------------------(1~)----------------------|
D|----4--------------2--(2)---------------------------------|
A|----2---5p4--2-----0---2h4--------------------------------|
E|----------------3----------------0------------------------|


CHORUS


e|----------------------------------------------------------|
B|----------------------------------------------------------|
G|----------------------------------------------------------|
D|------------4-----2---------------------------------------|
A|--------0------0-----4------------------------------------|
E|-----2-------------------5---2----------------------------|


e|----------------------------------------------------------|
B|-------------------------(7---5h7~)-----------------------|
G|----------------------------------------------------------|
D|------------4-----2-------4---2h4~------------------------|
A|---------0-----0------4-----------------------------------|
E|------2---------------------------------------------------|

e|----------------------------------------------------------|
B|----------------------------------------------------------|
G|----------------------------------------------------------|
D|------------4-----2---------------------------------------|
A|--------0------0-----4------------------------------------|
E|-----2-------------------5---2----------------------------|

e|----------------------------------------------------------|
B|----------------------------------------------------------|
G|----------------------------------------------------------|
D|------------4-----2------------9~-------------------------|
A|--------0------0-----4---------7~-------------------------|
E|-----2----------------------------------------------------|

Solo 1 :

e|----------------------------------------------------------|
B|----------------------------------------------------------|
G|---------/-----7~----7p6--6h7h9---4~-------4\2------------|
D|------------------------------------------------4~--------|
A|----------------------------------------------------------|
E|----------------------------------------------------------|

e|----------------------------------------------------------|
B|-------------3--------------------------------------------|
G|----------2-----4~----------4--2---4brb---4brp2--4--4~----|
D|-------4--------------------------------------------------|
A|----------------------------------------------------------|
E|----------------------------------------------------------|

e|----------------------------------------------------------|
B|----------------------------------------------------------|
G|----------------------------------------------------------|
D|-------7--4-----------------------------------------------|
A|-------------7br5---7brb~---------------------------------|
E|----------------------------------------------------------|


Solo 2 :


e|----------------------------------------------------------|
B|------15~-------------------------------------------------|
G|----------------7----------------------------6------------|
D|-------------------9-----------------7~-----7-7--7~-------|
A|----------------------9~-------7--9--------9---9----------|
E|----------------------------------------------------------|

e|----------------------------------------------------------|
B|----------------------------------------------------------|
G|------------------------------------------7---------------|
D|-----9/10\9-7--9~-------------------7--------9\7----------|
A|------------------------------7--9-----9------------------|
E|--------------------------------------------------10--7~--|

e|----------------------------------------------------------|
B|----------------------------------------------------------|
G|----------------------7------------7----------------------|
D|----------------7--------7/9\7--------7/9--9--9~----------|
A|----5---5--7/9-----9------------9-------------------------|
E|------7---------------------------------------------------|

e|------------------------7---------------------------------|
B|----------10p7-----10b-----10b----10-7--------------------|
G|------7--------7------------------------10p9-7--9-7--9b---|
D|----------------------------------------------------------|
A|----------------------------------------------------------|
E|----------------------------------------------------------|

e|----------------------------------------------------------|
B|----------------------------------------------------------|
G|-----9bb--7-------------9p7----7b--7b-7b------------------|
D|-------------9--9----9------9-------------9p7-------------|
A|----------------------------------------------9-----------|
E|-------------------------------------------------10--7----|

e|----------------------------------------------------------|
B|----------------------------------------------------------|
G|------------------------7------7-------7------------------|
D|-------------------7-------7~-----7~------7-----7~---7h9~-|
A|-----5-----5--7/9----9-----------------------9-----9------|
E|--------7-------------------------------------------------|

e|----------------------------------------------------------|
B|---------10--12---/12~-----10-----/12~--------------------|
G|----/11-----------------------11--------------------------|
D|----------------------------------------------------------|
A|----------------------------------------------------------|
E|----------------------------------------------------------|

e|-----------------10b--------------------------------------|
B|---------10------------12p10------10h12~------12--10------|
G|-----11------11---------------11--------------------------|
D|----------------------------------------------------------|
A|----------------------------------------------------------|
E|----------------------------------------------------------|

e|-----10-------------10-------------10---------------------|
B|---------12p10----------12p10----------12p10--------------|
G|----------------11-------------11-------------11----------|
D|----------------------------------------------------------|
A|----------------------------------------------------------|
E|----------------------------------------------------------|
[ Tab from: http://www.guitaretab.com/l/lynyrd-skynyrd/30267.html ]
e|-----10-------------10-------------10---------------------|
B|---------12p10----------12p10----------12p10--------------|
G|----------------11-------------11-------------11----------|
D|----------------------------------------------------------|
A|----------------------------------------------------------|
E|----------------------------------------------------------|

e|-----10-------------10-------------10---------------------|
B|---------12p10----------12p10----------12p10--------------|
G|----------------11-------------11-------------11----------|
D|----------------------------------------------------------|
A|----------------------------------------------------------|
E|----------------------------------------------------------|

e|----10------------------10--------------------------------|
B|--------12p10----------------12--10---12~-----------------|
G|---------------11-----------------------------------------|
D|----------------------------------------------------------|
A|----------------------------------------------------------|
E|----------------------------------------------------------|

e|------------17-------------17-----------------------------|
B|-------17b------------17b------17brp15------15--17--15----|
G|----------------------------------------16----------------|
D|----------------------------------------------------------|
A|----------------------------------------------------------|
E|----------------------------------------------------------|

e|------------17------(17)----------------------------------|
B|-------17b-----------17brp15------------------------------|
G|-------------------------------16---16~-------------------|
D|----------------------------------------------------------|
A|----------------------------------------------------------|
E|----------------------------------------------------------|

e|------------17-------------17-----------------------------|
B|-------17b------------17b------17brp15------15--17--15----|
G|----------------------------------------16----------------|
D|----------------------------------------------------------|
A|----------------------------------------------------------|
E|----------------------------------------------------------|


e|------------17-------17-------17------------14--17--17b---|
B|-------17b------17b------17b------17b---17----------------|
G|----------------------------------------------------------|
D|----------------------------------------------------------|
A|----------------------------------------------------------|
E|----------------------------------------------------------|

e|-------17b--17b----17b--17--14-------14----------14-------|
B|--------------------------------17b------15--17-----------|
G|----------------------------------------------------------|
D|----------------------------------------------------------|
A|----------------------------------------------------------|
E|----------------------------------------------------------|

e|--------17b-17b-----17--14-----------------------------14-|
B|----------------------------14b--14b---------------17-----|
G|--------------------------------------16--14--------------|
D|----------------------------------------------16----------|
A|----------------------------------------------------------|
E|----------------------------------------------------------|

e|-------17b-------17b--17--14-17b--17--14--17b---17--14----|
B|----------------------------------------------------------|
G|----------------------------------------------------------|
D|----------------------------------------------------------|
A|----------------------------------------------------------|
E|----------------------------------------------------------|

e|------------14-------14-----------------------------------|
B|-------17b------17b------14b---14b------------------------|
G|-------------------------------------16--14---------------|
D|--------------------------------------------16-14----14---|
A|--------------------------------------------------16------|
E|----------------------------------------------------------|


e|----------------------------------------------------------|
B|----------------------------------------------------------|
G|--------9~------9b-9b-9b-9b-9b-9b-9b-9b-9b-9b-9br-6-------|
D|--------9~-------------------------------------------9----|
A|----------------------------------------------------------|
E|----------------------------------------------------------|

e|----------------------------------------------------------|
B|----------------------------------------------------------|
G|----------------------------------------------------------|
D|------7b-7b-7b--4~----------------------------------------|
A|----------------------------------------------------------|
E|----------------------------------------------------------|

e|----------------------------------------------------------|
B|----------------------------------------------------------|
G|-----4p2----2---------------------------------------------|
D|----------4---4-2-----------------------------------------|
A|------------------4-2-------------------------------------|
E|----------------------5-2--------------//////-------------|


Repeat the main lead

Solo 3 (Outro) :

e|----------------------------------------------------------|
B|----7---10bb---7----7/10/7~-------------------------10----|
G|------------------------------------9brp7-9---7--9b---9b--|
D|--------------------------------------------9-------------|
A|----------------------------------------------------------|
E|----------------------------------------------------------|

e|----------------------------------------------------------|
B|------7--10b--10-7--------7-------------------------------|
G|--------------------10-9----9p8---------------------------|
D|--------------------------------9-------------------------|
A|----------------------------------9~----------------------|
E|----------------------------------------------------------|

e|----------------------------------------------------------|
B|---------7-7-----7--10-----7--7------7--10---10b----------|
G|-----9b------9b--------9b--------9b-----------------------|
D|----------------------------------------------------------|
A|----------------------------------------------------------|
E|----------------------------------------------------------|

e|----------7-7-------7--10--7-------7----------------------|
B|-----10b-------10b------------10b-------------------------|
G|--------------------------------------9br--7--------------|
D|----------------------------------------------9~----------|
A|----------------------------------------------------------|
E|----------------------------------------------------------|


e|----------------------------------------------------------|
B|---------10--10------10---12bb---12bb----10-12-10~--------|
G|----/11----------11---------------------------------------|
D|----------------------------------------------------------|
A|----------------------------------------------------------|
E|----------------------------------------------------------|


e|----------------------------------------------------------|
B|-----10-7-------------------------------------------------|
G|-----------10-9-7---9---7-9-7b----------------------------|
D|------------------9---9---------9~------------------------|
A|----------------------------------------------------------|
E|----------------------------------------------------------|

e|----------7-7-----7-10-7------7------7--------------------|
B|-----10b------10b---------10b----10b----10b---------------|
G|----------------------------------------------------------|
D|----------------------------------------------------------|
A|----------------------------------------------------------|
E|----------------------------------------------------------|

e|-----------7-7------7-10-7-----7--10b-10--7~--------------|
B|------10b------10b---------10b----------------------------|
G|----------------------------------------------------------|
D|----------------------------------------------------------|
A|----------------------------------------------------------|
E|----------------------------------------------------------|

e|-------17----17-------------(17)-----------17-------------|
B|-------17b---17b---17brp15---17br--17--15--17b------------|
G|----------------------------------------------------------|
D|----------------------------------------------------------|
A|----------------------------------------------------------|
E|----------------------------------------------------------|

e|-------17----17-------------(17)--------------------------|
B|-------17b---17b---17brp15---17br--17--15-----------------|
G|-------------------------------------------16~------------|
D|----------------------------------------------------------|
A|----------------------------------------------------------|
E|----------------------------------------------------------|
Related for Workin For Mca tab
Workin For Mca chords by Lynyrd Skynyrd