Song name
# A B C D E F G H I J K L M N O P Q R S T U V W X Y Z

Lynyrd Skynyrd - Tomorrows Goodbye tab

-----------------------------------------------------------------------------
                             Tomorrow's Goodbye - Lynyrd Skynyrd
-----------------------------------------------------------------------------
Tabbed by:
Email:

Tuning: Standard 

I transcribed this tab by ear, and annoys me that the only tab here of this song 
is wrong so I decided to post my tab.

    G        D           Am    C
e|-------3-------0h2---------0-----------------|
B|-------3-----------3-------1-----------------|
G|-----0---0---2-------0---2-----------0-----0-| X2
D|-----------0-----------------------2---0-2---|
A|-----------------------0-----0-2-3-----------|
E|---3-----------------------------------------|

Tap to rate this tab
 
# A B C D E F G H I J K L M N O P Q R S T U V W X Y Z