Guitaretab - guitar tabs
Song name
# A B C D E F G H I J K L M N O P Q R S T U V W X Y Z

Lynyrd Skynyrd - Down South Juckin tab

Down South Jukin'

Lynyrd Skynyrd - tabbed by John Lofgren

a
billy joe told me now everything's lookin' fine 
                                                    e
he got the place all secured got the icebox full of wine
            a
he said now hurry on over and don't be late
       d                       d9
i got three lovely ladies that just won't wait 
        a                  e                      a    d9 d#9 e9
do some down south jukin', lookin' for a piece of mind

now put your sunday pants on let's get out on the road
we been working all week and i think it's time we let go
we got three fat mommas sitting all alone 
gonna sip my wine gonna get it on
do some down south jukin', lookin' for a piece of mind
[ Tab from: http://www.guitaretab.com/l/lynyrd-skynyrd/32223.html ]
come monday morning we'll be headed out to the field
we'll be doing everything for pop and old uncle bill
come friday night we'll be headed to town
trying to pick up any woman hanging around
do some down south jukin', lookin' for a piece of mind
do some down south jukin', lookin' for a piece of mind
do some down south jukin', lookin' for a piece of mind

Intro:

                                      |   |x5
-------------------------------------------  ------
---------5---5-----------5---5-----------5-  ------
-----2-5---5---5-2---2-5---5---5-2---2-5---  -5-2--
-2-4---------------4---------------4-------  -----4
-------------------------------------------  ------
-------------------------------------------  ------

---------------------------------------------------
---2-2-4-2-2-42-5-6-7------------------------------
---2-2-4-2-2-42-5-6-7------------------------------
-2-2-2-4-2-2-42-4-5-6------------------------------
----------------5-6-7------------------------------
---------------------------------------------------
Related for Down South Juckin tab
Down South Juckin chords by Lynyrd Skynyrd