Song name
# A B C D E F G H I J K L M N O P Q R S T U V W X Y Z

Lynyrd Skynyrd - Whats Your Name tab

Lynyrd skynyrd

What’s your name


h  =  Hammer on
p  =  Pull off
b  =  Bend string up
bb =  1 1/2 tone bend
H  =  Hold bend
R  =  Release bend
/  =  slides
~  =  vibrato
t  =  Right hand tap
x  =  Play 'note' with heavy damping


E----------------------------------------------------------|
B----------------------------------------------------------|
G----------------------10p9-7------7----7------------------|
D---5---6/7---9p7------10p9-7------7----7------------------|
A---3---4/5---5-----------------------9--------------------|
E----------------------------------------------------------|

E----------------------------------------------------------|
B----------------------------------------------------------|
G----------------------------------------------------------|
D------------------------------------------5-4-2-------2---|
A-------4--5-7p5----7p5-----5------------0-3/2-0---4-5-0---|
E----0--2--3-----3------3---3----------------------2-3-----|


Verse

E----------------------------------------------------------|
B----------------------------------------------------------|
G----------------------------------------------------------|
D-2----2--4-------2h4------2-----2---4-------2h4-----------|
A-0----0------0------------0-----0-------0-----------------|
E----------------------------------------------------------|

E----------------------------------------------------------|
B----------------------------------------------------------|
G------------------------------2---------------------------|
D--------------------------2-----4-----2h4--2--------------|
A---5---9--7-----7h9-------0--------0-------0--------------|
E---3---------3--------------------------------------------|

E----------------------------------------------------------|
B----------------------------------------------------------|
G-------2----------------------2---------------------------|
D---2------4-----2h4-------2-----4-----2h4-----------------|
A---0---------0------------0--------0----------------------|
E----------------------------------------------------------|


E--------------------------------2---3---3/4---------------|
B--------------------------0-----1---2---2/3---------------|
G--------------------------1-----2---3---3/4---------------|
D--------------------------2-------------------------------|
A---2----2--4------2h4-------------------------------------|
E---0----0-----0-------------------------------------------|

E----------------------------------------------------------|
B----------------------------------------------------------|
G----------------------------------------------------------|
D-2----2--4-------2h4------2-----2---4-------2h4-----------|
A-0----0------0------------0-----0-------0-----------------|
E----------------------------------------------------------|


E----------------------------------------------------------|
B------------------------------------8----8----------------|
G------------------------------------7----7----------------|
D--------------------------7---7-----5----5----------------|
A---5---9--7-----7h9-------5---5---------------------------|
E---3---------3--------------------------------------------|

E----------------------------------------------------------|
B----------------------------------------------------------|
G----------------------------------------------------------|
D----2---2---4------2h4------------------------------------|
A----0---0------0---------2----2---4-------2h4-------------|
E-------------------------0----0-------0-------------------|

E----------------------------------------------------------|
B----------------------------------------------------------|
G---------2------------------------------------------------|
D----2-------4-----2h4-------------------------------------|
A----0----------0------------------------------------------|
E----------------------------------------------------------|

Chorus

Repeat twice


E----------------------------------------------------------|
B----------------------------------------------------------|
G----------------------10p9-7------7----7------------------|
D-----5/6/7---9p7------10p9-7------7----7------------------|
A-----3/4/5---5-----------------------9--------------------|
E----------------------------------------------------------|

E----------------------------------------------------------|
B----------------------------------------------------------|
G----------------------------------------------------------|
D----------------------------------------------------------|
A---------4--5----5--7p5--5--5---7p5---5--5----7p5---------|
E------0--2--3----3--3----3--3---3-----3--3----3-----------|


Then


E----------------------------------------------------------|
B----------------------------------------------------------|
G----------------------------------------------------------|
D--------5-4--2--------------------------------------------|
A----0---3/2--0---4-5--------------------------------------|
E-----------------2-3--------------------------------------|

Verse 2

Chorus 2


Now the solo

|------------------------------------------17------------17----------17--|
|------------------17------17-------17-----17-----17-----17---17-----17--|
|--------------14-—16b-----16b—-----16b-----------16b---------16b--------|
|------14--16------------------------------------------------------------|
|12/16-------------------------------------------------------------------|
|------------------------------------------------------------------------|

|------------------------------------------------------------------------|
|------------------------------------------------------------------------|
|--14---16p14------14h16--16-16---------14-16p14-----14-14-14---------14-|
|---------------16----------------14h16------------16------------14h16---|
|------------------------------------------------------------------------|
|------------------------------------------------------------------------|

|------------------------------------------------------------------------|
|------------------------------------------------------------------------|
|--16p14------14—16b------------------14------------------14----------14-|
|----------16-----------------14---16------16/-------14h16---16p14-14----|
|------------------------------------------------------------------------|
|------------------------------------------------------------------------|

|------------------------------------------------------------------------|
|------------------------------------------------------------------------|
|------------------------------------------------------------------------|
|------------------------------------------------------------------------|
|--16/14--12--14p12-----12—-12--12-----------12--14p12------12-12b-------|
|-------------------14-----------------12h14------------14---------------|

|------------------------------------------------------------------------|
|------------------------------------------------------------------------|
|-------------------------14----------14--14----14---14---14----14----14-|
|----------14--16--14-16-------14-16------14h16------14h16------14h16----|
|---12/16----------------------------------------------------------------|
|------------------------------------------------------------------------|

|------------------------------------------------------------------------|
|------------------------------------------------------------------------|
|----14----14---14----14---14----14---14----14--16p14----14-16b----------|
|----14h16------14h16------14h16------14h16-----------16-----------------|
|------------------------------------------------------------------------|
|------------------------------------------------------------------------|

|------------------------------------------------------------------------|
|--------------------------------------------15--15--17------------------|
|------------14--------------------14--14-14h16—14--—16b-----------------|
|--14---16--------16/-----------14h16--14--------------------------------|
|------------------------------------------------------------------------|
|------------------------------------------------------------------------|

Chorus 3

Verse

Chorus 4

End


Have fun
Tap to rate this tab
# A B C D E F G H I J K L M N O P Q R S T U V W X Y Z