Guitaretab - guitar tabs
Song name
# A B C D E F G H I J K L M N O P Q R S T U V W X Y Z

Lynyrd Skynyrd - Things Goin On tab

Band: Lynyrd Skynyrd
Song: Things Goin' On
Album: Pronounced (1973)

h= hammer on
p= pull off
b= bend
/= slide up
*= harmonic
x= muted note

 Intro:

e-------------------------------12*----------------------------------------|
B----------------x-x----------------------------------x-x--------------3---|
G----------------x-x----------------------------------x-x--------4-2-4---4-|
D-----2-4b-2---2-x-x-----2/(14)------------2-4b-2---2-x-x-----2------------|
A-2h4--------4---x-x-2h4---------------2h4--------4---x-x-2h4--------------|
E--------------------------------------------------------------------------|

e--------------------------------------------------------------------------|
B----------x-x--------------1-3--------------------------------------------|
G----------x-x--------2-0-2------------------------------------------------|
D-4b-2---2-x-x-----2-------------4b-2---2-----------------2----------------|
A------4---x-x-2h4--------------------4---4-2---------2h4------------------|
E---------------------------------------------3-0--/4----------------------|

e----------------------------------12*--------------------------------------|
B-------------------x-x-------------------------------------------------3-3-|
G-------------------x-x-------------------------------------------4-2-4-----|
D-----2-4b-4b-2---2-x-x-----2/(14)------------2-4b-2---4b-2-2---------------|
A-2h4-----------4---x-x-2h4---------------2h4--------4--------4-2-----------|
E---------------------------------------------------------------------------|
[ Tab from: http://www.guitaretab.com/l/lynyrd-skynyrd/50097.html ]
e---------------------------------------------------------------------------|
B----------x-x--------------3-2---------------------------------------------|
G----------x-x--------2-0-2-------------------------------------------------|
D-4b-2---2-x-x-----2---------------4b-2---2-----------------2---------------|
A------4---x-x-2h4----------------------4---4-2---------2h4-----------------|
E-----------------------------------------------3-0-0/4---------------------|

Here are the chords used for this song:

    E    B    A7   Riff 1
e|------------0---------------|
B|-------4----2---------------|
G|--1----4----0---------------|
D|--2----4----2-----------2---|
A|--2----2------------2h4-----|
E|--0--------------/4---------|

         E
Have you ever lived down in the ghetto
         E                       B
Have you ever felt the cold wind blow
             E
Well, if you don't know what I mean
          A7
Won't you stand up and scream
               E            B                 E   riff 1
'Cause there's things goin' on that you don't know

         E
Too many lives they've spent across the ocean
         E                         B
Too much money been spent upon the moon
        E
Well, until they make it right
            A7
I hope they never sleep at night
            E         B                 E   riff 1
They better make some changes and do it soon

              E
They're gonna ruin the air we breathe, Lord have mercy
              E                   B
They're gonna ruin us all, by and by
            E
I'm telling all you beware
        A7
I don't think they really care
             E           B                  E   riff 1
I think they just sit up there and just get high

         E
Have you ever lived down in the ghetto
         E                       B
Have you ever felt the cold wind blow
             E
Well, if you don't know what I mean
          A7
Won't you stand up and scream
               E            B                 E   riff 1
'Cause there's things goin' on that you don't know

             E
Well, if you don't know what I mean
          A7
Won't you stand up and scream
               E            B                 E
'Cause there's things goin' on that you don't know
Related for Things Goin On tab
Advertisement will be closed in 10 seconds