Song name
# A B C D E F G H I J K L M N O P Q R S T U V W X Y Z

Lynyrd Skynyrd - You Got That Right tab

Band: Lynyrd Skynyrd
Song: You Got That Right
Album: Street Survivors


Gtr I (E A D G B E) - 'Slide'
Gtr II (E A D G B E) - 'Clean Electric'
Gtr III (E A D G B E) - 'Clean Electric'
Gtr IV (E A D G B E) - 'Distorted'
Gtr V (E A D G B E) - 'Lead 1'
Gtr VI (E A D G B E) - 'Lead 2'


 Intro
  Moderately Fast Rock Q=144
        F          Bb    Cm                  Bb  F
 2/4        4/4
  Gtr I
                    ~~~~~~~~~~~~~~~~~~~~~~~
  E E E E    +Q    +H.                +Q.      E Q    E  E
|---------||------------------------|----------------------|
|---------||------------------------|----------6s8s==10----|
|---------||------------------------|-------------------10-|
|---------||------------------------|----------------------|
|-x-----8-||-(8)---(8)--------------|-(8)------------------|
|---7s8---||------------------------|----------------------|
|
| Gtr II
| Q   E E    +E  E  q    q  E    E    +Q     q   E E  E  E
|-------1-||-(1)-1-------3-------3--|-(3)--------1-1-----1-|
|-------1-||-(1)-1--3----4-------4--|-(4)----3---1-1--1--1-|
|-------2-||-(2)-2--3----5-------5--|-(5)----3---2-2--2--2-|
|---------||------------------------|----------------------|
|---------||------------------------|----------------------|
|---------||------------------------|----------------------|
|
| Gtrs III, IV
| Q   E E    +E  E  E  E Q  E a  E    +E   E q   E E  E  E
|-------1-||-(1)-1------------3-(3)-|-(3)\-------1-1-----1-|
|-------1-||-(1)-1--3--3-4----3h=4--|-(4)\---3---1-1-----1-|
|-------2-||-(2)-2--3----5----3h=5--|-(5)\---3---2-2-----2-|
|-------3-||-(3)-3--3----5----3h=5--|-(5)\---3---3-3-----3-|
|-------3-||-(3)-3-------3----3-(3)-|-(3)\-------3-3-----3-|
|-------1-||-(1)-1--1---------------|------0-1---1-1-----1-|


         Bb  Cm                        Bb  F
                                                     ~~
   +H         +H               E     E  Q   E  E  E  E
|---------------------------|----------13-----------13---|
|---------------------------|------/13-----13s11---------|
|-(10)-------(10)\----------|--------------------13------|
|---------------------------|----------------------------|
|---------------------------|----------------------------|
|---------------------------|----------------------------|
|
|  +E  E q     q    E    E     Q        q   E  E  E  E
|--(1)-1-------3----x----3--|--3------------1--1-----1---|
|--(1)-1-3-----4----x----4--|--4--------3---1--1--1--1---|
|--(2)-2-3-----5----x----5--|--5--------3---2--2--2--2---|
|---------------------------|----------------------------|
|---------------------------|----------------------------|
|---------------------------|----------------------------|
|
|  +E  E E E   Q    E a  E    +E     E  q   E  E  E  E
|--(1)-1-------3------3-(3)-|-(3)\----------1--1-----1---|
|--(1)-1-3-----4------3h=4--|-(4)\------3---1--1-----1---|
|--(2)-2-3-----5------3h=5--|-(5)\------3---2--2-----2---|
|--(3)-3-3-----5------3h=5--|-(5)\------3---3--3-----3---|
|--(3)-3--------------3-(3)-|-(3)\----------3--3-----3---|
|--(1)-1---x--------x-------|--------0--1---1--1-----1---|


  F      Bb  Cm                      Bb  F
    ~~~~                                             ~~~
   +W                       +E     E  q   E  E a  E  E
|-(13)-------------------|-(13)\-----13----------------|
|------------------------|-------/13-----13S11-9S10----|
|------------------------|--------------------------10-|
|------------------------|-----------------------------|
|------------------------|-----------------------------|
|------------------------|-----------------------------|
|
|  +E  E q   Q   E    E     +Q        q   E  E    E  E
|--(1)-1-----3---x----3--|--(3)-----------1--1-------1-|
|--(1)-1-3---4---x----4--|--(4)-------3---1--1----1--1-|
|--(2)-2-3---5---x----5--|--(5)-------3---2--2----2--2-|
|------------------------|-----------------------------|
|------------------------|-----------------------------|
|------------------------|-----------------------------|
|
|  +E  E E E E E E a  E     +E     E  q   E  E    E  E
|--(1)-1-----------3-(3)-|--(3)-----------1--1----x--1-|
|--(1)-1-3---4-x-x-3h=4--|--(4)-------3---1--1----x--1-|
|--(2)-2-3---5-x-x-3h=5--|--(5)-------3---2--2----x--2-|
|--(3)-3-3---5-x-x-3h=5--|--(5)----0--3---3--3----x--3-|
|--(3)-3---3-------3-(3)-|--(3)-----------3--3---------|
|--(1)-1-1---------------|------------1---1--1---------|


         Bb  Cm        Db         Eb          F
 ~~~~~~                                        ~~
   +H         +E   E E E   +Q.    E +Q    E    E
|------------------------|-------------------------||
|------------------------|-------------------------||
|-(10)-------(10)\-----6-|-(6)----8-(8)------------||
|----------------------6-|-(6)----8-(8)------------||
|------------------------|--------------------/8---||
|------------------------|-------------------------||
|
|  +E  E q     q     Q      W
|--(1)-1-------3---------|-------------------------||
|--(1)-1-3-----4---------|-------------------------||
|--(2)-2-3-----5---------|-------------------------||
|------------------------|-------------------------||
|------------------------|-------------------------||
|------------------------|-------------------------||
|
|  +E  E E E   q     E E   +Q   E E +Q   +E    E
|--(1)-1-----------------|-------------------------||
|--(1)---3-----4-----x---|-------------------------||
|--(2)---3-----5-----x-6-|-(6)--x-8-(8)--(8)\------||
|--(3)---3-----5-----x-6-|-(6)--x-8-(8)--(8)\------||
|----------3---3-----x-4-|-(4)--x-6-(6)--(6)\--3---||
|------------------------|---------------------1---||


   Verses
    F                                     Bb
     ~~~~~~~~~~~~~~~~~~~~~~~              ~~~
    +W                  +H        +E  Q   E
||--------------------|---------------------|
||o-------------------|---------------------|
||--------------------|---------------------|
||--------------------|---------------7s==8-|
||o-(8)---------------|-(8)-------(8)-7s==8-|
||--------------------|---------------------|
|
|   Gtrs III, IV
|           PM  PM              PM----|
|   +E  E E E E E E E   +E  E E E  E  E E E
||--------------------|---------------------|
||o-------------------|---------------------|
||--------------------|-------------------3-|
||------3-----3-----3-|-(3)-3------3------3-|
||o-(3)---5-------5-3-|-(3)---5----3--3-5-1-|
||--(1)-----1---1---1-|-(1)-----1--1--1-----|


                                      F
 ~~~~~~~~~~~~~~~~~~~~~~~~~
   W                  +H.           Q
|-------------------|--------------------|
|-------------------|--------------------|
|-------------------|--------------------|
|--8----------------|-(8)----------------|
|--8----------------|-(8)----------------|
|-------------------|--------------------|
|
| +E  E E E E E E E   +E  E E E E E E E
|-------------------|--------------------|
|-------------------|--------------------|
|-(3)-3-----3-3---3-|-(3)-3-----3--------|
|-(3)---5-----3-5-3-|-(3)---5---3-3-5----|
|-(1)-----1-------1-|-(1)-----1---1---3--|
|-------------------|-----------------1--|


  F                                       B5C
      ~~~~~~~~~~~~~~~~~~~~~~~~~~~~~~~~
   E  Q.     +H          +H        Q.        E
|----------------------|-----------------------|
|----------------------|-----------------------|
|----------------------|--------------------/5-|
|----------------------|--------------------/5-|
|-----8------(8)-------|-(8)-------8-----------|
|----------------------|-----------------------|
|
|                PM                   PM
| +E  E  E E  E  E E E   +E  E E E E  E E a  E
|----------------------|-----------------------|
|----------------------|-----------------------|
|----------------------|------------------4s=5-|
|-----3-------3------3-|-(3)-3-----3------4s=5-|
|-(3)-3--5-3--3----5-3-|-(3)---5------3---2s=3-|
|-(1)------1-----1---1-|-(1)-----1----1--------|


                                C DbD5Eb5
                                      ~
  +W                  +H        E E E E
|-------------------|-------------------||
|-------------------|-------------------||
|-(5)---------------|-(5)-------5-6-7-8-||
|-(5)---------------|-(5)-------5-6-7-8-||
|-------------------|-------------------||
|-------------------|-------------------||
|
| +E  E E E E E E E   +E  E E E E E E E
|-------------------|-------------------||
|-------------------|-------------------||
|-(5)-5-----5-----5-|-(5)-5-----5-6-7-8-||
|-(5)---7-5-5-5-7-5-|-(5)-5-7-5-5-6-7-8-||
|-(3)-----3---3---3-|-(3)-3---3-3-4-5-6-||
|-------------------|-------------------||


 Pre-Chorus
  Eb5             Bb                    Eb5
   ~~~            ~~~~~~~~~~~~~~~~~~~~~~~~~~
  +H     +E  Q    E   +H        +Q.      E
|-------------------|----------------------|
|-------------------|----------------------|
|-(8)----(8)-8\---3-|-(3)-------(3)-----/8-|
|-(8)----(8)------3-|-(3)-------(3)-----/8-|
|-------------------|----------------------|
|-------------------|----------------------|
|
| Gtr II
|  H      E  E  E E   +H         E  E E  E
|---------6--6----6-|-(6)--------6--6----6-|
|---------8--8----6-|-(6)--------6--6----8-|
|-(8)-----8--8----7-|-(7)--------7--7----8-|
|-(8)---------------|----------------------|
|-(6)---------------|----------------------|
|-------------------|----------------------|
|
| Gtrs III, IV
| +H      E  E  E E   +E  E E E  E  E E  E
|-----------------6-|-(6)-6------6--6------|
|---------8--8----6-|-(6)-6-6----6--6----8-|
|-(8)-----8--8----7-|-(7)-7-7----7--7----8-|
|-(8)-----8--8----8-|-(8)-8------8--8----8-|
|-(6)-----6--6----8-|-(8)-8---8--8--8----6-|
|-----------------6-|-(6)-6---6--6--6------|


                   Bb                      F
 ~~~~~      ~~~~~~~~~~~~~~~~~~~~~~~~
  +H      a Q.     E   +H       +E  +Q     E
|--------------------|-----------------------||
|---------7s8\-------|-----------------------||
|-(8)----------------|-----------------------||
|-(8)--------------8-|-(8)------(8)-(8)\-----||
|------------------8-|-(8)------(8)-(8)\-----||
|--------------------|-----------------------||
|
| +H        E  E E E   +H        E   E   E E
|-(6)-------6--6---6-|-(6)-------6---6-----1-||
|-(8)-------8--8---6-|-(6)-------6---6-----1-||
|-(8)-------8--8---7-|-(7)-------7---7-----2-||
|--------------------|-----------------------||
|--------------------|-----------------------||
|--------------------|-----------------------||
|
| +Q   Q    E  E E E   +E  E Q   E   E   E E
|------------------6-|-(6)-6---------6-----1-||
|-(8)-------8--8---6-|-(6)-6---------6-----1-||
|-(8)-------8--8---7-|-(7)-7---------7-----2-||
|-(8)-------8--8---8-|-(8)-8---------8-----3-||
|-(6)-------6--6---8-|-(8)-8-----8---8-----3-||
|------------------6-|-(6)-6-----6---6-----1-||


 1st Chorus
  1.
  F     Bb  Cm                  Bb F
                                             ~~~
   W                      H         E  E  E  E
|----------------------|-----------13s11----13-|
|----------------------|-----------------13----|
|----------------------|-----------------------|
|----------------------|-----------------------|
|----------------------|-----------------------|
|----------------------|-----------------------|
|
| +E  E q   Q  E    E    +Q     q   E  E  E  E
|-(1)-1-----3-------3--|-(3)--------1--1-----1-|
|-(1)-1-3---4-------4--|-(4)----3---1--1--1--1-|
|-(2)-2-3---5-------5--|-(5)----3---2--2--2--2-|
|----------------------|-----------------------|
|----------------------|-----------------------|
|----------------------|-----------------------|
|
| +E  E E E Q  E a  E    +E   E q   E  E  E  E
|-(1)-1-----3----3-(3)-|-(3)\-------1--1-----1-|
|-(1)-1-3---4----3h=4--|-(4)\---3---1--1-----1-|
|-(2)-2-3---5----3h=5--|-(5)\---3---2--2-----2-|
|-(3)-3-3---5----3h=5--|-(5)\---3---3--3-----3-|
|-(3)-3----------3-(3)-|-(3)\-------3--3-----3-|
|-(1)-1---x----x-------|------0-1---1--1-----1-|


         Bb  Cm                   Bb      F
 ~~~~~~~~~~~~~~~~~~~~~~~~~~~~~~~~~~~~~~
   +W                       +Q     +E.  S  +E   E a  E  E
|-(13)-------------------|-(13)---(13)-13-(13)s11----------|
|------------------------|------------------------9s10-----|
|------------------------|-----------------------------10--|
|------------------------|---------------------------------|
|------------------------|---------------------------------|
|------------------------|---------------------------------|
|
|  +E  E q   q   E    E     +Q      q       E   E    E  E
|--(1)-1-----3---x----3--|--(3)-------------1---1-------1--|
|--(1)-1-3---4---x----4--|--(4)-----3-------1---1----1--1--|
|--(2)-2-3---5---x----5--|--(5)-----3-------2---2----2--2--|
|------------------------|---------------------------------|
|------------------------|---------------------------------|
|------------------------|---------------------------------|
|
|  +E  E E E E E E a  E     +E  E   q       E   E    E  E
|--(1)-1-----------3-(3)-|--(3)-------------1---1----x--1--|
|--(1)-1-3---4-x-x-3h=4--|--(4)-----3-------1---1----x--1--|
|--(2)-2-3---5-x-x-3h=5--|--(5)-----3-------2---2----x--2--|
|--(3)-3-3---5-x-x-3h=5--|--(5)-0---3-------3---3----x--3--|
|--(3)-3---3-------3-(3)-|--(3)-------------3---3----------|
|--(1)-1-1---------------|----------1-------1---1----------|


  F      Bb  Cm       Db         Eb          F
                                             ~
   +H         +Q    E E   +Q.    E +Q    E   E
|-----------------------|-----------------------||
|-----------------------|----------------------o||
|-(10)-------(10)\----6-|-(6)----8-(8)----------||
|---------------------6-|-(6)----8-(8)----------||
|-----------------------|--------------------8-o||
|-----------------------|-----------------------||
|
|  +E  E q     Q    Q      W
|--(1)-1-------3--------|-----------------------||
|--(1)-1-3-----4--------|----------------------o||
|--(2)-2-3-----5--------|-----------------------||
|-----------------------|-----------------------||
|-----------------------|----------------------o||
|-----------------------|-----------------------||
|
|  +E  E E E   q    E E   +Q   E E +Q   +E   E
|--(1)-1----------------|-----------------------||
|--(1)---3-----4----x---|----------------------o||
|--(2)---3-----5----x-6-|-(6)--x-8-(8)--(8)\----||
|--(3)---3-----5----x-6-|-(6)--x-8-(8)--(8)\----||
|----------3---3----x-4-|-(4)--x-6-(6)--(6)\-3-o||
|-----------------------|--------------------1--||


 2nd Chorus
 2.
        Bb  Cm                  Bb F
   W                      W
|----------------------|-------------------|
|----------------------|-------------------|
|----------------------|-------------------|
|----------------------|-------------------|
|----------------------|-------------------|
|----------------------|-------------------|
|
|  E  E q   Q  E    E    +Q     q  E E E E
|-(1)-1-----3-------3--|-(3)-------1-1---1-|
|-(1)-1-3---4-------4--|-(4)----3--1-1-1-1-|
|-(2)-2-3---5-------5--|-(5)----3--2-2-2-2-|
|----------------------|-------------------|
|----------------------|-------------------|
|----------------------|-------------------|
|
|  E  E E E Q  E a  E    +E   E q  E E E E
|-(1)-1----------3-(3)-|-(3)\------1-1---1-|
|-(1)-1-3-3-4----3h=4--|-(4)\---3--1-1---1-|
|-(2)-2-3---5----3h=5--|-(5)\---3--2-2---2-|
|-(3)-3-3---5----3h=5--|-(5)\---3--3-3---3-|
|-(3)-3-----3----3-(3)-|-(3)\------3-3---3-|
|-(1)-1-1--------------|------0-1--1-1---1-|


  F     Bb  Cm                  Bb F
   W                      W
|----------------------|-------------------|
|----------------------|-------------------|
|----------------------|-------------------|
|----------------------|-------------------|
|----------------------|-------------------|
|----------------------|-------------------|
|
| +E  E q   q  E    E    +Q     q  E E E E
|-(1)-1-----3--x----3--|-(3)-------1-1---1-|
|-(1)-1-3---4--x----4--|-(4)----3--1-1-1-1-|
|-(2)-2-3---5--x----5--|-(5)----3--2-2-2-2-|
|----------------------|-------------------|
|----------------------|-------------------|
|----------------------|-------------------|
|
| +E  E E E Q  E a  E    +E   E q  E E E E
|-(1)-1-----3----3-(3)-|-(3)\------1-1---1-|
|-(1)-1-3---4----3h=4--|-(4)\---3--1-1---1-|
|-(2)-2-3---5----3h=5--|-(5)\---3--2-2---2-|
|-(3)-3-3---5----3h=5--|-(5)\---3--3-3---3-|
|-(3)-3----------3-(3)-|-(3)\------3-3---3-|
|-(1)-1---x----x-------|------0-1--1-1---1-|


        Bb  Cm                  Bb F
   W                       W
|-----------------------|--------------------|
|-----------------------|--------------------|
|-----------------------|--------------------|
|-----------------------|--------------------|
|-----------------------|--------------------|
|-----------------------|--------------------|
|
| +E  E q   q   E    E    +Q    q  E E E E
|-(1)-1-----3---x----3--|-(3)------1-1---1---|
|-(1)-1-3---4---x----4--|-(4)---3--1-1-1-1---|
|-(2)-2-3---5---x----5--|-(5)---3--2-2-2-2---|
|-----------------------|--------------------|
|-----------------------|--------------------|
|-----------------------|--------------------|
|
| +E  E E E E E E a  E    +E  E q  E E E E
|-(1)-1-----------3-(3)-|-(3)------1-1-x-1---|
|-(1)-1-3---4-x-x-3h=4--|-(4)---3--1-1-x-1---|
|-(2)-2-3---5-x-x-3h=5--|-(5)---3--2-2-x-2---|
|-(3)-3-3---5-x-x-3h=5--|-(5)-0-3--3-3-x-3---|
|-(3)-3---3-------3-(3)-|-(3)------3-3-------|
|-(1)-1-1---------------|-------1--1-1-------|


  F     Bb Cm     Db              Eb             F
   H       Q  E   E   +Q.         E +Q.           E
|-------------------|-------------------------------||
|-----------------6-|-(6)---------8-(8)----------10-||
|-----------------6-|-(6)---------8-(8)----------10-||
|-----------------6-|-(6)---------8-(8)----------10-||
|-------------------|-------------------------------||
|-------------------|-------------------------------||
|
| +E  E q  q  E a E   +E  E a E a E +E  E a  E a  E
|-(1)-1----3------4-|-----------6--------------8----||
|-(1)-1-3--4----4h6-|-(6)-4-----6h8-(8)-6------8h10-||
|-(2)-2-3--5--------|-------6h8-----------8h10------||
|-------------------|-------------------------------||
|-------------------|-------------------------------||
|-------------------|-------------------------------||
|
| +E  E Q  Q  E   E   +Q      E   E +Q       E    E
|-(1)-1-------------|-------------------------------||
|-(1)---3--4--x-----|-------------------------------||
|-(2)---3--5--x---6-|-(6)-----x---8-(8)------x---10-||
|-(3)---3--5--x---6-|-(6)-----x---8-(8)------x---10-||
|----------3--x---4-|-(4)-----x---6-(6)------x----8-||
|-------------------|-------------------------------||


 Bridge
                              Db              Eb             F
   +H.                 +E     E   +Q.         E +Q.           E
|-------------------------------|---------------------------------|
|-(10)----------------(10)\---6-|-(6)---------8-(8)----------10---|
|-(10)----------------(10)\---6-|-(6)---------8-(8)----------10---|
|-(10)----------------(10)\---6-|-(6)---------8-(8)----------10---|
|-------------------------------|---------------------------------|
|-------------------------------|---------------------------------|
|
|  +E   E  E  E  E  E   E   a E   +E  E a E a E +E  E a  E a  E
|-----------------------------4-|-----------6--------------8------|
|-(10)----10-----8-10-------4h6-|-(6)-4-----6h8-(8)-6------8h10---|
|------10-10-10-10--------------|-------6h8-----------8h10--------|
|-------------------------------|---------------------------------|
|-------------------------------|---------------------------------|
|-------------------------------|---------------------------------|
|
|  +E   E  E  E  E  E   E     E   +E  E   E   E +E  E    E    E
|-------------------------------|---------------------------------|
|-------------------------------|---------------------------------|
|-(10)----------10-10---x-----6-|-(6)-6---x---8-(8)-8----x---10---|
|-(10)----12-10-10-10---x-----6-|-(6)-6---x---8-(8)-8----x---10---|
|--(8)--8-----8--8--8---x-----4-|-(4)-4---x---6-(6)-6----x----8---|
|-------------------------------|---------------------------------|


  F                           Db              Eb             F
   +H.                 +E     E   +Q.         E +Q.           E
|-------------------------------|-------------------------------|
|-(10)----------------(10)\---6-|-(6)---------8-(8)----------10-|
|-(10)----------------(10)\---6-|-(6)---------8-(8)----------10-|
|-(10)----------------(10)\---6-|-(6)---------8-(8)----------10-|
|-------------------------------|-------------------------------|
|-------------------------------|-------------------------------|
|
|  +E   E  E  E  E  E   E   a E   +E  E a E a E +E  E a  E a  E
|---------------------------4---|-----------6--------------8----|
|-(10)----10-----8-10-------4h6-|-(6)-4-----6h8-(8)-6------8h10-|
|------10-10-10-10--------------|-------6h8-----------8s10------|
|-------------------------------|-------------------------------|
|-------------------------------|-------------------------------|
|-------------------------------|-------------------------------|
|
|  +E   E  E  E  E  E   E     E   +E  E   E   E +E  E    E    E
|-------------------------------|-------------------------------|
|-------------------------------|-------------------------------|
|-(10)----------10-10---x-----6-|-(6)-6---x---8-(8)-8----x---10-|
|-(10)----12-10-10-10---x-----6-|-(6)-6---x---8-(8)-8----x---10-|
|--(8)--8-----8--8--8---x-----4-|-(4)-4---x---6-(6)-6----x----8-|
|-------------------------------|-------------------------------|


                              Db                Eb              F
   +H.                 +E     E   +Q      +E     E  Q       E    E
|-------------------------------|------------------------------------|
|-(10)----------------(10)\---9-|-(9)-----(9)s==11-11------11s==13---|
|-(10)----------------(10)\-----|------------------------------------|
|-(10)----------------(10)\-----|------------------------------------|
|-------------------------------|------------------------------------|
|-------------------------------|------------------------------------|
|
|  +E   E  E  E  E  E   E   a E   +E  E a  E  a  E +E  E a  E a  E
|---------------------------4---|-------------6---------------8------|
|-(10)----10-----8-10-------4h6-|-(6)-4-------6h=8-(8)-6------8h10---|
|------10-10-10-10--------------|-------6h=8-------------8s10--------|
|-------------------------------|------------------------------------|
|-------------------------------|------------------------------------|
|-------------------------------|------------------------------------|
|
|  +E   E  E  E  E  E   E     E   +E  E    E     E +E  E    E    E
|-------------------------------|------------------------------------|
|-------------------------------|------------------------------------|
|-(10)----------10-10---x-----6-|-(6)-6----x-----8-(8)-8-------------|
|-(10)----12-10-10-10---x-----6-|-(6)-6----x-----8-(8)-8-------------|
|--(8)--8-----8--8--8---x-----4-|-(4)-4----x-----6-(6)-6--------/8---|
|-------------------------------|------------------------------------|


                             F
                        6/4
   +H.            Q       W.
|----------------------|----------------------------|
|-(13)-----------13\---|-12\------------------------|
|----------------------|----------------------------|
|----------------------|----------------------------|
|----------------------|----------------------------|
|----------------------|----------------------------|
|
|  +E  E Q   H            H         H      Q   E  E
|----------------------|----------------------------|
|-(10)-----------------|----------------------------|
|----------------------|----------------------------|
|----------------------|----------------------------|
|----------------------|--------------------------8-|
|----------------------|----------------------------|
|
|      PM  PM  PM    PM
|   E  E E E E E  E  E    E  E E E +H     +Q.     E
|----------------------|----------------------------|
|----------------------|----------------------------|
|----------------------|----------------------------|
|---7----5---3----1----|-----3----------------------|
|------6---5---3-----0-|--1----3-----------------/8-|
|----------------------|---------1-(1)----(1)-------|


                                          F
 4/4
   W                  S E.   +H         E  E
|-------------------|---------------------13--||
|-10\---------------|---------------------13--||
|-------------------|-------------------------||
|-------------------|---1----(1)s======10-----||
|-------------------|-------------------------||
|-------------------|-------------------------||
|
|  W                  W
|-------------------|-------------------------||
|-------------------|-------------------------||
|-------------------|-------------------------||
|-------------------|-------------------------||
|-------------------|-------------------------||
|-------------------|-------------------------||
|
|     PM  PM  PM  PM
|  E  E E E E E E E   E    E  E  E E E  E  E
|-------------------|-------------------------||
|-------------------|-------------------------||
|-------------------|-------------------1-----||
|--7----5---3---1---|------------1-2-3--------||
|-----6---5---3---0-|-1----2--3------------3--||
|-------------------|----------------------1--||


 1st Guitar Solo
  F                                                        Bb
   +E   E  E  E   E  E  E  a  E    +E   E  E  E  Q    +E   E
|-(13)-13-13-13-/13-13-13-------|----------------------------|
|-(13)-13-13-13-/13-13-13-13s11-|-(11)-13-11s10------------4s|
|-------------------------------|------13-------10---(10)\---|
|-------------------------------|----------------------------|
|-------------------------------|----------------------------|
|-------------------------------|----------------------------|
|
| Gtrs III, IV
|             PM     PM                       PM---|
|   E   E  E  E   E  E  E     E    +E   E  E  E  E E   E   E
|-------------------------------|----------------------------|
|-------------------------------|----------------------------|
|-------------------------------|--------------------------3-|
|-------3---------3-----------3-|--(3)--3--------3---------3-|
|---3------5------------5-----3-|--(3)-----5-----3-3---5---1-|
|---1---------1------1--------1-|--(1)--------1--1-1---------|


                                                    F
   E  E E E E E E   E    +E   E   E  E  +E   +Q     E
|-----6-6-6-6-6---/15-|-(15)-13------------------------|
|--6--6-6-6-6-6-6-----|---------/15--------------------|
|---------------------|-------------15-(15)-(15)\---8s=|
|---------------------|-----------------------------8s=|
|---------------------|--------------------------------|
|---------------------|--------------------------------|
|
| +E  E E E E E E   E    +E   E   E  E   E    E   E E
|---------------------|--------------------------------|
|---------------------|--------------------------------|
|-(3)-3-----3-3-----3-|--(3)--3----------3-------------|
|-(3)---5-----3-5---3-|--(3)------5------3----3---5----|
|-(1)-----1---------1-|--(1)---------1--------1-----3--|
|---------------------|-----------------------------1--|


  F                                                B5C
                                                      ~~~
   E   E  E  E  Q    E   E    E    E E   E +Q    E    E
|--------------------------|----------------------------|
|----------------------/13-|-----/10--------------------|
|-10--10-10----10----------|---------x\-/8-(8)s==9------|
|-10--------10------10-----|-------------------------10-|
|--------------------------|----------------------------|
|--------------------------|----------------------------|
|
|                 PM                           PM
| +E   E  E  E  E E  E   E   +E    E E   E  E  E E a  E
|--------------------------|----------------------------|
|--------------------------|----------------------------|
|--------------------------|-----------------------4s=5-|
|------3--------3--------3-|-(3)---3--------3------4s=5-|
|-(3)--3--5--3--3----5---3-|-(3)-----5---------3---2s=3-|
|-(1)--------1----1------1-|-(1)---------1-----1--------|


                                            DbD5Eb5
 ~~~~~~
   +H         +E   E E  E    E  Q.     +Q.       E
|-------------------------|------------------------|
|-------------------------|-10---------------------|
|--------------------9s10-|-10--8------(8)\-----/6-|
|-(10)-------(10)-10------|------------------------|
|-------------------------|------------------------|
|-------------------------|------------------------|
|
|  +E  E E E   E   E E  E   +E  E  E E  E   E E  E
|-------------------------|------------------------|
|-------------------------|------------------------|
|--(5)-5-------5--------5-|-(5)-5-------5---6-7--8-|
|--(5)---7-5---5---5-7--5-|-(5)-5--7-5--5---6-7--8-|
|--(3)-----3-------3----3-|-(3)-3----3--3---4-5--6-|
|-------------------------|------------------------|


  F                                        Bb
  +Q    Q    E E E E   +E  E E  S S  E E E E
|--------------------|-----------------------|
|--------------------|-----------------------|
|-(6)s==8------------|-------7s12---/6-------|
|-----------/5-6s7-8-|-(8)-------------8-8-8s|
|--------------------|-----8-----------------|
|--------------------|-----------------------|
|
|         PM   PM               PM-----|
|  E  E E E  E E E E   +E  E E  E    E E E E
|--------------------|-----------------------|
|--------------------|-----------------------|
|--------------------|---------------------3-|
|-----3------3-----3-|-(3)-3---------3-----3-|
|--3----5--------5-3-|-(3)---5-------3-3-5-1-|
|--1------1----1---1-|-(1)------1----1-1-----|


                                         F
   E   E E E E E E E   +Q     Q   Q    E  E
|--------6-6-------6-|-(6)s==13---6---12-13-|
|-----/6-----6s4-----|------------6---12-13-|
|----------------6---|----------------------|
|--6-----------------|----------------------|
|--------------------|----------------------|
|--------------------|----------------------|
|
| +E   E E E E E E E   +E  E  E E E E  E  E
|--------------------|----------------------|
|--------------------|----------------------|
|-(3)--3-----3-3---3-|-(3)-3------3---------|
|-(3)----5-----3-5-3-|-(3)----5---3-3--5----|
|-(1)------1-------1-|-(1)------1---1-----3-|
|--------------------|--------------------1-|


  F         Bb  Cm                         Bb  F
         ~~~~~~~~~~~~
   +E   +Q.      +H               +E     E  q   E  E   E  E
|-(13)-(13)-----(13)-----------|-(13)\-----13---------------|
|-(13)-(13)-----(13)-----------|-(13)\-/13-----13s11-/10----|
|------------------------------|-------------------------10-|
|------------------------------|----------------------------|
|------------------------------|----------------------------|
|------------------------------|----------------------------|
|
| Gtrs II, III, IV
|   E    E  E E   E  E E a  E     +E     E  q   E  E   E  E
|---1----1---------------3-(3)-|--(3)-----------1--1---x--1-|
|---1----1--3-----4--x-x-3h=4--|--(4)-------3---1--1---x--1-|
|---2----2--3-----5--x-x-3h=5--|--(5)-------3---2--2---x--2-|
|---3----3--3-----5--x-x-3h=5--|--(5)----0--3---3--3---x--3-|
|--(3)---3----3----------3-(3)-|--(3)-----------3--3--------|
|--(1)---1--1------------------|------------1---1--1--------|


            Bb  Cm       Db         Eb          F
         ~~~~                                   ~
   +E   +Q.      +Q    E E   +Q.    E +Q    E   E
|--------------------------|----------------------||
|--------------------------|----------------------||
|-(10)-(10)-----(10)\----6-|-(6)----8-(8)---------||
|------------------------6-|-(6)----8-(8)---------||
|--------------------------|--------------------8-||
|--------------------------|----------------------||
|
|  +E    E  E E   q    E E   +Q   E E +Q   +E   E
|--(1)---1-----------------|----------------------||
|--(1)------3-----4----x---|----------------------||
|--(2)------3-----5----x-6-|-(6)--x-8-(8)--(8)\---||
|--(3)------3-----5----x-6-|-(6)--x-8-(8)--(8)\---||
|-------------3---3----x-4-|-(4)--x-6-(6)--(6)\-3-||
|--------------------------|--------------------1-||


 3rd Verse
  F
   ~~~~~~~~~~~~~~~~~~~~~~~              ~~~
  +W                  +H        +E  Q   E
|-------------------|---------------------|
|-------------------|---------------------|
|-------------------|---------------------|
|-------------------|---------------7s==8-|
|-(8)---------------|-(8)-------(8)-7s==8-|
|-------------------|---------------------|
|
|         PM  PM              PM----|
| +E  E E E E E E E   +E  E E E  E  E E E
|-------------------|---------------------|
|-------------------|---------------------|
|-------------------|-------------------3-|
|-----3-----3-----3-|-(3)-3------3------3-|
|-(3)---5-------5-3-|-(3)---5----3--3-5-1-|
|-(1)-----1---1---1-|-(1)-----1--1--1-----|


  Bb                                  F
 ~~~~~~~~~~~~~~~~~~~~~~~~~
   W                  +H.           Q
|-------------------|-------------------|
|-------------------|-------------------|
|-------------------|-------------------|
|--8----------------|-(8)---------------|
|--8----------------|-(8)---------------|
|-------------------|-------------------|
|
| +E  E E E E E E E   +E  E E E E E E E
|-------------------|-------------------|
|-------------------|-------------------|
|-(3)-3-----3-3---3-|-(3)-3-----3-------|
|-(3)---5-----3-5-3-|-(3)---5---3-3-5---|
|-(1)-----1-------1-|-(1)-----1---1---3-|
|-------------------|-----------------1-|


  F                                       B5C
      ~~~~~~~~~~~~~~~~~~~~~~~~~~~~~~~~
   E  Q.     +H          +H        Q.        E
|----------------------|-----------------------|
|----------------------|-----------------------|
|----------------------|--------------------/5-|
|----------------------|--------------------/5-|
|-----8------(8)-------|-(8)-------8-----------|
|----------------------|-----------------------|
|
|                PM                   PM
| +E  E  E E  E  E E E   +E  E E E E  E E a  E
|----------------------|-----------------------|
|----------------------|-----------------------|
|----------------------|------------------4s=5-|
|-----3-------3------3-|-(3)-3-----3------4s=5-|
|-(3)-3--5-3--3----5-3-|-(3)---5------3---2s=3-|
|-(1)------1-----1---1-|-(1)-----1----1--------|


                                  C#D5Eb5
                                      ~
  +W                  +H        E E E E
|-------------------|-------------------||
|-------------------|-------------------||
|-(5)---------------|-(5)-------5-6-7-8-||
|-(5)---------------|-(5)-------5-6-7-8-||
|-------------------|-------------------||
|-------------------|-------------------||
|
| +E  E E E E E E E   +E  E E E E E E E
|-------------------|-------------------||
|-------------------|-------------------||
|-(5)-5-----5-----5-|-(5)-5-----5-6-7-8-||
|-(5)---7-5-5-5-7-5-|-(5)-5-7-5-5-6-7-8-||
|-(3)-----3---3---3-|-(3)-3---3-3-4-5-6-||
|-------------------|-------------------||


 3rd Pre-Chorus
  Eb5             Bb                    Eb5
   ~~~            ~~~~~~~~~~~~~~~~~~~~~~~~~~
   H     +E  Q    E   +H        +Q.      E
|-------------------|----------------------|
|-------------------|----------------------|
|--8-----(8)-8\---3-|-(3)-------(3)-----/8-|
|--8-----(8)------3-|-(3)-------(3)-----/8-|
|-------------------|----------------------|
|-------------------|----------------------|
|
| Gtr II
|  H      E  E  E E   +H         E  E E  E
|---------6--6----6-|-(6)--------6--6----6-|
|---------8--8----6-|-(6)--------6--6----8-|
|-(8)-----8--8----7-|-(7)--------7--7----8-|
|-(8)---------------|----------------------|
|-(6)---------------|----------------------|
|-------------------|----------------------|
|
| Gtrs III, IV
| +H      E  E  E E   +E  E E E  E  E E  E
|-----------------6-|-(6)-6------6--6------|
|---------8--8----6-|-(6)-6-6----6--6----8-|
|-(8)-----8--8----7-|-(7)-7-7----7--7----8-|
|-(8)-----8--8----8-|-(8)-8------8--8----8-|
|-(6)-----6--6----8-|-(8)-8---8--8--8----6-|
|-----------------6-|-(6)-6---6--6--6------|


                   Bb                      F
 ~~~~~      ~~~~~~~~~~~~~~~~~~~~~~~~
  +H      a Q.     E   +H       +E  +Q     E
|--------------------|-----------------------||
|---------7s8\-------|-----------------------||
|-(8)----------------|-----------------------||
|-(8)--------------8-|-(8)------(8)-(8)\-----||
|------------------8-|-(8)------(8)-(8)\-----||
|--------------------|-----------------------||
|
| +H        E  E E E   +H        E   E   E E
|-(6)-------6--6---6-|-(6)-------6---6-----1-||
|-(8)-------8--8---6-|-(6)-------6---6-----1-||
|-(8)-------8--8---7-|-(7)-------7---7-----2-||
|--------------------|-----------------------||
|--------------------|-----------------------||
|--------------------|-----------------------||
|
| +Q   Q    E  E E E   +E  E Q   E   E   E E
|------------------6-|-(6)-6---------6-----1-||
|-(8)-------8--8---6-|-(6)-6---------6-----1-||
|-(8)-------8--8---7-|-(7)-7---------7-----2-||
|-(8)-------8--8---8-|-(8)-8---------8-----3-||
|-(6)-------6--6---8-|-(8)-8-----8---8-----3-||
|------------------6-|-(6)-6-----6---6-----1-||


 3rd Chorus
  F     Bb  Cm                  Bb F
   W                      W
|----------------------|-------------------|
|----------------------|-------------------|
|----------------------|-------------------|
|----------------------|-------------------|
|----------------------|-------------------|
|----------------------|-------------------|
|
|  E  E q   Q  E    E    +Q     q  E E E E
|-(1)-1-----3-------3--|-(3)-------1-1---1-|
|-(1)-1-3---4-------4--|-(4)----3--1-1-1-1-|
|-(2)-2-3---5-------5--|-(5)----3--2-2-2-2-|
|----------------------|-------------------|
|----------------------|-------------------|
|----------------------|-------------------|
|
|  E  E E E Q  E a  E    +E   E q  E E E E
|-(1)-1----------3-(3)-|-(3)\------1-1---1-|
|-(1)-1-3-3-4----3h=4--|-(4)\---3--1-1---1-|
|-(2)-2-3---5----3h=5--|-(5)\---3--2-2---2-|
|-(3)-3-3---5----3h=5--|-(5)\---3--3-3---3-|
|-(3)-3-----3----3-(3)-|-(3)\------3-3---3-|
|-(1)-1-1--------------|------0-1--1-1---1-|


        Bb  Cm                  Bb F
   W                      W
|----------------------|---------------------|
|----------------------|---------------------|
|----------------------|---------------------|
|----------------------|---------------------|
|----------------------|---------------------|
|----------------------|---------------------|
|
| +E  E q   q  E    E    +Q     q  E E E E
|-(1)-1-----3--x----3--|-(3)-------1-1---1---|
|-(1)-1-3---4--x----4--|-(4)----3--1-1-1-1---|
|-(2)-2-3---5--x----5--|-(5)----3--2-2-2-2---|
|----------------------|---------------------|
|----------------------|---------------------|
|----------------------|---------------------|
|
| +E  E E E Q  E a  E    +E   E q  E E E E
|-(1)-1-----3----3-(3)-|-(3)\------1-1---1---|
|-(1)-1-3---4----3h=4--|-(4)\---3--1-1---1---|
|-(2)-2-3---5----3h=5--|-(5)\---3--2-2---2---|
|-(3)-3-3---5----3h=5--|-(5)\---3--3-3---3---|
|-(3)-3----------3-(3)-|-(3)\------3-3---3---|
|-(1)-1---x----x-------|------0-1--1-1---1---|


  F     Bb  Cm                  Bb F
   W                       W
|-----------------------|------------------|
|-----------------------|------------------|
|-----------------------|------------------|
|-----------------------|------------------|
|-----------------------|------------------|
|-----------------------|------------------|
|
| +E  E q   q   E    E    +Q    q  E E E E
|-(1)-1-----3---x----3--|-(3)------1-1---1-|
|-(1)-1-3---4---x----4--|-(4)---3--1-1-1-1-|
|-(2)-2-3---5---x----5--|-(5)---3--2-2-2-2-|
|-----------------------|------------------|
|-----------------------|------------------|
|-----------------------|------------------|
|
| +E  E E E E E E a  E    +E  E q  E E E E
|-(1)-1-----------3-(3)-|-(3)------1-1-x-1-|
|-(1)-1-3---4-x-x-3h=4--|-(4)---3--1-1-x-1-|
|-(2)-2-3---5-x-x-3h=5--|-(5)---3--2-2-x-2-|
|-(3)-3-3---5-x-x-3h=5--|-(5)-0-3--3-3-x-3-|
|-(3)-3---3-------3-(3)-|-(3)------3-3-----|
|-(1)-1-1---------------|-------1--1-1-----|


  F       Bb  Cm   Db          Eb
    H         Q  E E   +Q    E E +Q    E  E
|--------------------|----------------------|
|--------------------|----------------------|
|------------------6-|-(6)-----8-(8)-----10-|
|------------------6-|-(6)-----8-(8)-----10-|
|--------------------|----------------------|
|--------------------|----------------------|
|
| Gtr II
|   E   E  Q  q  Q      W
|-------------8------|----------------------|
|-(10)-10-11--8------|----------------------|
|-(10)-10-10--8------|----------------------|
|-(10)-10-12---------|----------------------|
|--------------------|----------------------|
|--------------------|----------------------|
|
| Gtrs III, IV
|  +E   E  q  q  E E   +E  E E E +E  E E  E
|--(1)--1------------|----------------------|
|--(1)-----3--4--x-6-|-(6)-6-x-8-(8)-8------|
|--(2)-----3--5--x-6-|-(6)-6-x-8-(8)-8------|
|--(3)-----3--5--x-6-|-(6)-6-x-8-(8)-8------|
|-------------3--x-4-|-(4)-4-x-6-(6)-6---/8-|
|--------------------|----------------------|


   +W                   +Q.      E  +E   +E     E  E
|--------------------|----------13-(13)-(13)\--------|
|--------------------|------------------------/10----|
|-(10)---------------|-(10)-----------------------10-|
|-(10)---------------|-(10)--------------------------|
|--------------------|-------------------------------|
|--------------------|-------------------------------|
|
|   W                    W
|--------------------|-------------------------------|
|--------------------|-------------------------------|
|--------------------|-------------------------------|
|--------------------|-------------------------------|
|--------------------|-------------------------------|
|--------------------|-------------------------------|
|
|      PM  PM  PM  PM
|   E  E E E E E E E     E  E E  E  +Q          E  E
|--------------------|-------------------------------|
|--------------------|-------------------------------|
|--------------------|-------------------------------|
|---7----5---3---1---|------3------------------------|
|------6---5---3---0-|---1----3-------------------/8-|
|--------------------|-----------1--(1)--------------|


   +W                   +E     E  E  E  E   E  a  E  E
|--------------------|-----------13-13--------------13-|
|--------------------|-------/13-------13s=11----------|
|-(10)---------------|-(10)\------------------12s13----|
|--------------------|---------------------------------|
|--------------------|---------------------------------|
|--------------------|---------------------------------|
|
| Gtrs II, III, IV
|      PM  PM  PM  PM
|   E  E E E E E E E     E     E  E  E +Q         E  E
|--------------------|---------------------------------|
|--------------------|---------------------------------|
|--------------------|---------------------------------|
|---7----5---3---1---|---------3-----------------------|
|------6---5---3---0-|---1--------3-----------------/8-|
|--------------------|---------------1-(1)-------------|


           ~~~~~~~~~~                                ~~
   +Q     +Q     +Q.     E   E   E  q    E   E a  E  E
|-(13)---(13)---(13)-------|-------13--------------------|
|--------------------------|---/13------13s=11-9-10------|
|------------------------xs|=x----------------------10---|
|--------------------------|-----------------------------|
|--------------------------|-----------------------------|
|--------------------------|-----------------------------|
|
|      PM     PM     PM  PM
|   E  E   E  E   E  E E E   E   E  E E +Q        E  E
|--------------------------|-----------------------------|
|--------------------------|-----------------------------|
|--------------------------|-----------------------------|
|---7------5------3----1---|-----3-----------------------|
|------6------5------3---0-|-1------3---------------/8---|
|--------------------------|----------1-(1)--------------|


                                                 G
                      6/4
    ~~~~~~~~~~~~~~~~~~~~~~~~
   +W                   +E   +Q     E Q  Q  H
|--------------------|--------------------------------||
|--------------------|--------------------------------||
|-(10)---------------|-(10)-(10)\---------------------||
|--------------------|--------------------------------||
|--------------------|--------------------------------||
|--------------------|--------------------------------||
|
|      PM  PM  PM  PM
|   E  E E E E E E E     E    E   E E Q  Q  Q  E E
|--------------------|---------------------------3----||
|--------------------|---------------------------3----||
|--------------------|---------------------------4----||
|---7----5---3---1---|--------3------------------5----||
|------6---5---3---0-|---1--------3--------------5----||
|--------------------|--------------1------------3----||
|
| Gtrs V, VI
|   W                    H            Q  Q  Q  E E
|--------------------|--------------------------------||
|--------------------|--------------------------------||
|--------------------|---------------------------5b7==||
|--------------------|--------------------------------||
|--------------------|--------------------------------||
|--------------------|--------------------------------||


 2nd Guitar Solo
              C      Dm                  C     G
 4/4
   W                                 W
|---------------------------------|------------------------|
|---------------------------------|------------------------|
|---------------------------------|------------------------|
|---------------------------------|------------------------|
|---------------------------------|------------------------|
|---------------------------------|------------------------|
|
| +E        E Q       q    E E      +E   E Q   E   E E E
|-(3)-------3----------------5----|-(5)--------3---3-x-3---|
|-(3)-------3-5-------6----x-6----|-(6)----5---3---3-x-3---|
|-(4)-------4-5-------7----x-7----|-(7)----5---4---4-x-4---|
|-(5)-------5-5-------7----x-7----|-(7)----5---5---5-x-5---|
|-(5)-------5---------5------5----|-(5)--------5---5-x-5---|
|-(3)-------3-3-------------------|------3-----3---3-x-3---|
|
|               ~~~~~~~~~~
|  |--3---|
| +S  +S  S E E E    +Q    E E      +Q     E E E   E E E
|-------------3------------3------|--------3---------------|
|---------------6b8==(6)r----6b8==|=(6)r-----6-------------|
|-(5)r(5)-3-----------------------|------------5b7-5-3-----|
|-----------5---------------------|--------------------5---|
|---------------------------------|------------------------|
|---------------------------------|------------------------|


    G      C       Dm                  C   G
  Gtr V
                                         ~~~~~~
  a  E   E E     E E E     E E    E  E E E +Q    E E
|------------------------------|------------------------|
|-5--5b6-5-3b3.5---5-----------|------------------------|
|-5--5b7-5-3b3.5---5-3b3.5-----|-------------------5b7==|
|----------------5---------5---|--3--5-5-5-(5)----------|
|----------------------------5-|------------------------|
|------------------------------|------------------------|
|
| Gtr VI
|    W                            H         Q    E E
|------------------------------|------------------------|
|------------------------------|------------------------|
|------------------------------|-------------------5b7==|
|------------------------------|------------------------|
|------------------------------|------------------------|
|------------------------------|------------------------|
|
| Gtrs II, III, IV
|   +E   E Q       q       E E   +E  E Q    E  E E E
|---(3)--3-------------------5-|-(5)--------3--3-x-3----|
|---(3)--3-5-------6-------x-6-|-(6)---5----3--3-x-3----|
|---(4)--4-5-------7-------x-7-|-(7)---5----4--4-x-4----|
|---(5)--5-5-------7-------x-7-|-(7)---5----5--5-x-5----|
|---(5)--5---------5---------5-|-(5)--------5--5-x-5----|
|---(3)--3-3-------------------|-----3------3--3-x-3----|


              C      Dm                    C      G
                ~~~~~~~~~~           ~~~~          ~~~~
   |--3---|
  +S  +S  S E E E    +Q    E E      +Q     E E    +Q     E E
|-------------3------------3------|--------3-------------3----|
|---------------6b8==(6)r----6b8==|=(6)r-----6b8==(6)r-----3--|
|-(5)r(5)-3-----------------------|---------------------------|
|-----------5---------------------|---------------------------|
|---------------------------------|---------------------------|
|---------------------------------|---------------------------|
|
|               ~~~~~~~~~~           ~~~~          ~~~~
|  |--3---|
| +S  +S  S E E E    +Q    E E      +Q     E E    +Q     E E
|-------------3------------3------|--------3-------------3----|
|---------------6b8==(6)r----6b8==|=(6)r-----6b8==(6)r-----3--|
|-(5)r(5)-3-----------------------|---------------------------|
|-----------5---------------------|---------------------------|
|---------------------------------|---------------------------|
|---------------------------------|---------------------------|
|
| +E        E Q       q    E E      +E   E Q       E   E E E
|-(3)-------3----------------5----|-(5)------------3---3-x-3--|
|-(3)-------3-5-------6----x-6----|-(6)----5-------3---3-x-3--|
|-(4)-------4-5-------7----x-7----|-(7)----5-------4---4-x-4--|
|-(5)-------5-5-------7----x-7----|-(7)----5-------5---5-x-5--|
|-(5)-------5---------5------5----|-(5)------------5---5-x-5--|
|-(3)-------3-3-------------------|------3---------3---3-x-3--|


  G        C       Dm                  C     G
                   PM----|                 ~~~~~~
   E     E E E     E E E E    E  E     E a E +Q    E a E
|--6b6.5-3-----------------|-----------------------------|
|----------5---------------|-----------------------------|
|------------3b3.5---------|-----------------------------|
|------------------5-------|-----------------------------|
|--------------------4-3-1-|--3--1b1.5-------------------|
|--------------------------|-----------3-1s3-(3)-----5s7-|
|
|                  PM----|                 ~~~~~~
|  E     E E E     E E E E    E  E     E a E +Q    E a E
|--6b6.5-3-----------------|-----------------------------|
|----------5---------------|-----------------------------|
|------------3b3.5---------|-----------------------------|
|------------------5-------|-----------------------------|
|--------------------4-3-1-|--3--1b1.5-------------------|
|--------------------------|-----------3-1s3-(3)-----5s7-|
|
| +E     E Q       q   E E   +E  E     Q      E  E E   E
|-(3)----3---------------5-|-(5)--------------3--3-x---3-|
|-(3)----3-5-------6---x-6-|-(6)-------5------3--3-x---3-|
|-(4)----4-5-------7---x-7-|-(7)-------5------4--4-x---4-|
|-(5)----5-5-------7---x-7-|-(7)-------5------5--5-x---5-|
|-(5)----5---------5-----5-|-(5)--------------5--5-x---5-|
|-(3)----3-3---------------|-----3------------3--3-x---3-|


        C     Dm                       C           G
                                                 ~~~~~~
  +E  E E E a E E E E    a  E       E   +S   +S  E +Q    E  E
|---------------------|------------10-----------------------------|
|-------------------8-|-10-10b12==(10)-(10)r(10)-8-(8)-----18b20--|
|---------------7-9---|-------------------------------------------|
|---------5-7s9-------|-------------------------------------------|
|-----5-7-------------|-------------------------------------------|
|-(7)-----------------|-------------------------------------------|
|
|                                                ~~~~~~
| +E  E E E a E E E E    a  E       E    S   +S  E +Q    E  E
|---------------------|------------10-----------------------------|
|-------------------8-|-10-10b12========10r=(10)-8-(8)-----18b20--|
|---------------7-9---|-------------------------------------------|
|---------5-7s9-------|-------------------------------------------|
|-----5-7-------------|-------------------------------------------|
|-(7)-----------------|-------------------------------------------|
|
| +E  E Q     q   E E      +E       E    Q          E  E E  E
|-(3)-3-------------5-|----(5)----------------------3--3-x--3-----|
|-(3)-3-5-----6---x-6-|----(6)-----------5----------3--3-x--3-----|
|-(4)-4-5-----7---x-7-|----(7)-----------5----------4--4-x--4-----|
|-(5)-5-5-----7---x-7-|----(7)-----------5----------5--5-x--5-----|
|-(5)-5-------5-----5-|----(5)----------------------5--5-x--5-----|
|-(3)-3-3-------------|-------------3---------------3--3-x--3-----|


  G       C        Dm                      C          G
                                                       ~~~~~~~~
   +E   E  E     E  E     E  E  E    +Q     E  E       E  +E     E  E
|---------------------------------|-----------------------------------|
|-(18)-18-18b20-18-18b20-18-15-18-|-(18)s==13-11b11.5-----------------|
|---------------------------------|-------------------12-(12)\-----12-|
|---------------------------------|----------------------------/14----|
|---------------------------------|-----------------------------------|
|---------------------------------|-----------------------------------|
|
|                                                      ~~~~~~~~
|  +E   E  E     E  E     E  E  E    +Q     E  E       E  +E     E  E
|---------------------------------|-----------------------------------|
|-(18)-18-18b20-18-18b20-18-15-18-|-(18)s==13-11b11.5-----------------|
|---------------------------------|-------------------12-(12)\-----12-|
|---------------------------------|----------------------------/14----|
|---------------------------------|-----------------------------------|
|---------------------------------|-----------------------------------|
|
|  +E   E  Q        q        E  E    +E  E  Q          E   E     E  E
|--(3)--3-----------------------5-|--(5)---------------3---3-----x--3-|
|--(3)--3--5--------6--------x--6-|--(6)----5----------3---3-----x--3-|
|--(4)--4--5--------7--------x--7-|--(7)----5----------4---4-----x--4-|
|--(5)--5--5--------7--------x--7-|--(7)----5----------5---5-----x--5-|
|--(5)--5-----------5-----------5-|--(5)---------------5---5-----x--5-|
|--(3)--3--3----------------------|------3-------------3---3-----x--3-|


        C     Dm                           C       G
   ~~~         ~~                                ~~~~~~~
   Q     E  E  Q   E  E    E       E    a   +E   E  +Q     E  E
|-----------------------|---------15----------------------------|
|-----------------------|---------------------------------------|
|-12-------12-12-----12-|-14b16==(14)-(14)r(14)-12-(12)------12-|
|-------14--------14----|---------------------------------14----|
|-----------------------|---------------------------------------|
|-----------------------|---------------------------------------|
|
|  ~~~         ~~                                ~~~~~~~
|  Q     E  E  Q   E  E    E       E    a   +E   E  +Q     E  E
|-----------------------|---------------------------------------|
|-----------------------|---------15----------------------------|
|-12-------12-12-----12-|-14b16==(14)-(14)r(14)-12-(12)------12-|
|-------14--------14----|---------------------------------14----|
|-----------------------|---------------------------------------|
|-----------------------|---------------------------------------|
|
| +E  E  Q     q   E  E   +E       E         Q       E  E  E  E
|-(3)-3---------------5-|-(5)------------------------3--3--x--3-|
|-(3)-3--5-----6---x--6-|-(6)----------------5-------3--3--x--3-|
|-(4)-4--5-----7---x--7-|-(7)----------------5-------4--4--x--4-|
|-(5)-5--5-----7---x--7-|-(7)----------------5-------5--5--x--5-|
|-(5)-5--------5------5-|-(5)------------------------5--5--x--5-|
|-(3)-3--3--------------|----------3-----------------3--3--x--3-|


  G        C     Dm                           C     G
                                                  ~~~~~~~
   E     E  E  E  E  E     +E   E    a  E   E  E  E  +Q     E  E
|---------------------------------|------------------------------|
|-------12-13-14-15---------------|------------------------------|
|-14b16-------------14b16r(14)-12-|--------------12-(12)------12-|
|---------------------------------|--------12-14-----------14----|
|---------------------------------|-12s14------------------------|
|---------------------------------|------------------------------|
|
|                                                 ~~~~~~~
|  E     E  E  E  E  E     +E   E    a  E   E  E  E  +Q     E  E
|---------------------------------|------------------------------|
|-------12-13-14-15---------------|------------------------------|
|-14b16-------------14b16r(14)-12-|--------------12-(12)------12-|
|---------------------------------|--------12-14-----------14----|
|---------------------------------|-12s14------------------------|
|---------------------------------|------------------------------|
|
| +E     E  Q     q         E   E      +E   E  Q      E  E  E  E
|-(3)----3----------------------5-|----(5)------------3--3--x--3-|
|-(3)----3--5-----6---------x---6-|----(6)-----5------3--3--x--3-|
|-(4)----4--5-----7---------x---7-|----(7)-----5------4--4--x--4-|
|-(5)----5--5-----7---------x---7-|----(7)-----5------5--5--x--5-|
|-(5)----5--------5-------------5-|----(5)------------5--5--x--5-|
|-(3)----3--3---------------------|---------3---------3--3--x--3-|


              C        Dm                                    C        G
                                                                       ~~
   E     S  S  E     E  E     S  S  E     S  S    E     S  S  S  S  E  Q    E  E
|----------------------------------------------|---------------------------------|
|-------15-15-------15-------15-15-------15-15-|-------15-15---------------------|
|-14b16-------14b16----14b16-------14b16-------|-14b16-------14p12----12------12-|
|----------------------------------------------|-------------------14------14----|
|----------------------------------------------|---------------------------------|
|----------------------------------------------|---------------------------------|
|
|                                                                      ~~
|  E     S  S  E     E  E     S  S  E     S  S    E     S  S  S  S  E  Q    E  E
|----------------------------------------------|---------------------------------|
|-------15-15-------15-------15-15-------15-15-|-------15-15---------------------|
|-14b16-------14b16----14b16-------14b16-------|-14b16-------14p12----12------12-|
|----------------------------------------------|-------------------14------14----|
|----------------------------------------------|---------------------------------|
|----------------------------------------------|---------------------------------|
|
| +E     E     Q        q           E     E      +E     E     Q        E E  E  E
|-(3)----3--------------------------------5----|-(5)-------------------3-3--x--3-|
|-(3)----3-----5--------6-----------x-----6----|-(6)----------5--------3-3--x--3-|
|-(4)----4-----5--------7-----------x-----7----|-(7)----------5--------4-4--x--4-|
|-(5)----5-----5--------7-----------x-----7----|-(7)----------5--------5-5--x--5-|
|-(5)----5--------------5-----------------5----|-(5)-------------------5-5--x--5-|
|-(3)----3-----3-------------------------------|--------3--------------3-3--x--3-|


  G        C     Dm                           C     G
                                                     ~~
   E     E  E  E  E     E  E     E    E     E  E  E  Q         E  E
|----------12----------------------|--------------------------------|
|-------15----12-15b17-15----------|-----------------------------15-|
|-14b16-------------------14b16-14-|-------------------------/17----|
|----------------------------------|-14----14-12----12--------------|
|----------------------------------|-------------14-----------------|
|----------------------------------|--------------------------------|
|
|                                                    ~~~~~~~~
|  E     E  E  E  E     E  E     E    E     E  E  E  E  +E     E  E
|----------12----15b17-15----------|-----------------------------15-|
|-------15----12----------15b17-15-|-------------------------/18----|
|-14b16----------------------------|-14b16-14-12----12-(12)\--------|
|----------------------------------|-------------14-----------------|
|----------------------------------|--------------------------------|
|----------------------------------|--------------------------------|
|
| +E     E  Q     q        E     E   +E     E  Q     E   E     E  E
|-(3)----3-----------------------5-|-(5)-------------3---3-----x--3-|
|-(3)----3--5-----6--------x-----6-|-(6)-------5-----3---3-----x--3-|
|-(4)----4--5-----7--------x-----7-|-(7)-------5-----4---4-----x--4-|
|-(5)----5--5-----7--------x-----7-|-(7)-------5-----5---5-----x--5-|
|-(5)----5--------5--------------5-|-(5)-------------5---5-----x--5-|
|-(3)----3--3----------------------|--------3--------3---3-----x--3-|


               C           Dm
   S   S  S  S  S  S  S  S  S  S  S  S  S  S  S  S
|---------------------------------------------------|
|-18p=15-17p15----15-18p15-17p15----15-18p15-17p15--|
|--------------17----------------17-----------------|
|---------------------------------------------------|
|---------------------------------------------------|
|---------------------------------------------------|
|
|  S   S  S  S  S  S  S  S  S  S  S  S  S  S  S  S
|-18p=15-17p15----15-18p15-17p15----15-18p15-17p15--|
|--------------18----------------18-----------------|
|---------------------------------------------------|
|---------------------------------------------------|
|---------------------------------------------------|
|---------------------------------------------------|
|
| +E      E     Q           q           E     E
|-(3)-----3-----------------------------------5-----|
|-(3)-----3-----5-----------6-----------x-----6-----|
|-(4)-----4-----5-----------7-----------x-----7-----|
|-(5)-----5-----5-----------7-----------x-----7-----|
|-(5)-----5-----------------5-----------------5-----|
|-(3)-----3-----3-----------------------------------|


  Dm           C           G
   S   S  S  S  S  S  S  S  S  S  S  S  S  S  E
|---------------------------------------------------|
|-----15-18-15-17-15----15-18-15-17-15----15--------|
|-17-----------------17----------------17----17b19--|
|---------------------------------------------------|
|---------------------------------------------------|
|---------------------------------------------------|
|
|  S   S  S  S  S  S  E     S  S  S  S  S  S  E
|-----15-18-15-17-15-------18-15-17-15----15--------|
|-18-----------------18----------------18----17b19==|
|---------------------------------------------------|
|---------------------------------------------------|
|---------------------------------------------------|
|---------------------------------------------------|
|
| +E      E     Q           E     E     E     E
|-(5)-----------------------3-----3-----x-----3-----|
|-(6)-----------5-----------3-----3-----x-----3-----|
|-(7)-----------5-----------4-----4-----x-----4-----|
|-(7)-----------5-----------5-----5-----x-----5-----|
|-(5)-----------------------5-----5-----x-----5-----|
|---------3-----------------3-----3-----x-----3-----|


           C         Dm          D#(type 2)             F
    H                  Q       E  E        +Q      E     E       +Q      Q
|---------------------------------------|-------------------------------------------||
|---------------------------------------|-------------------------------------------||
|---------------------------------8-----|--(8)----------10------(10)----------------||
|---------------------------------8-----|--(8)----------10------(10)----------------||
|---------------------------------------|-------------------------------------------||
|---------------------------------------|-------------------------------------------||
|
|                      ~~~~~
|  +E    E  E  E      +E    E  E  E        +Q      E.       +S    E   E  E   E
|----------15--------------15----18b20==|=(18)r---18b20----(18)--15-----15----------||
|-(17)r-15----18b20==(18)r----15--------|----------------------------15-----18b20===||
|---------------------------------------|-------------------------------------------||
|---------------------------------------|-------------------------------------------||
|---------------------------------------|-------------------------------------------||
|---------------------------------------|-------------------------------------------||
|
|  +E    E  Q          e    e  e  E        +E   e  e     E       +E   E  E   E
|--(3)---3------------------------------|-------------------------------------------||
|--(3)---3--5----------6----x--x--8-----|--(8)--x--x----10------(10)-10-------------||
|--(4)---4--5----------7----x--x--8-----|--(8)--x--x----10------(10)-10-------------||
|--(5)---5--5----------7----x--x--8-----|--(8)--x--x----10------(10)-10-------------||
|--(5)---5-------------5----x--x--6-----|--(6)--x--x-----8-------(8)--8----/10------||
|--(3)---3--3---------------------------|-------------------------------------------||


 Outro
  Gtr I
    W                    +Q.      E  +E   +E     E   E
|---------------------|----------15-(15)-(15)\---------|
|---------------------|------------------------/12-----|
|--12-----------------|-(12)------------------------12-|
|---------------------|--------------------------------|
|---------------------|--------------------------------|
|---------------------|--------------------------------|
|
| Gtrs V, VI
|   ~~~~~
|  +W                     W
|---------------------|--------------------------------|
|-(18)r---------------|--------------------------------|
|---------------------|--------------------------------|
|---------------------|--------------------------------|
|---------------------|--------------------------------|
|---------------------|--------------------------------|
|
|       PM  PM  PM  PM
|   E   E E E E E E E     E  E E  E  +Q          E   E
|---------------------|--------------------------------|
|---------------------|--------------------------------|
|---------------------|--------------------------------|
|---9-----7---5---3---|------5-------------------------|
|-------8---7---5---2-|---3----5-------------------/10-|
|---------------------|-----------3--(3)---------------|


   +W                   E    E  q    E   E  a  E   E
|--------------------|---------15-----------------15-|
|--------------------|-----/15------15s=13-----------|
|-(12)---------------|-12\-----------------14s15-----|
|--------------------|-------------------------------|
|--------------------|-------------------------------|
|--------------------|-------------------------------|
|
|   W                   W
|--------------------|-------------------------------|
|--------------------|-------------------------------|
|--------------------|-------------------------------|
|--------------------|-------------------------------|
|--------------------|-------------------------------|
|--------------------|-------------------------------|
|
|      PM  PM  PM  PM
|   E  E E E E E E E    E    E  E E +Q         E   E
|--------------------|-------------------------------|
|--------------------|-------------------------------|
|--------------------|-------------------------------|
|---9----7---5---3---|-------5-----------------------|
|------8---7---5---2-|--3-------5----------------/10-|
|--------------------|------------3-(3)--------------|


   +W                   +E     E  Q    E   E  a  E   E
|-(15)---------------|-(15)\-----15--------------------|
|--------------------|-------/15------15s=13-11s12-----|
|--------------------|------------------------------12-|
|--------------------|---------------------------------|
|--------------------|---------------------------------|
|--------------------|---------------------------------|
|
| Gtrs II, III, IV
|      PM  PM  PM  PM
|   E  E E E E E E E     E     E  E E +Q         E   E
|--------------------|---------------------------------|
|--------------------|---------------------------------|
|--------------------|---------------------------------|
|---9----7---5---3---|---------5-----------------------|
|------8---7---5---2-|---3--------5----------------/10-|
|--------------------|--------------3-(3)--------------|


                                                                  G
           ~~~~~~~~~~~~~~~~~~~~                                     ~~~
   +Q     +Q     +Q.      +E     W                 H           Q    Q
|------------------------------|-----------------|-----------------------*|
|------------------------------|-----------------|----------------/12----*|
|-(12)---(12)---(12)-----(12)\-|-----------------|----------------/12----*|
|------------------------------|-----------------|----------------/12----*|
|------------------------------|-----------------|-----------------------*|
|------------------------------|-----------------|-----------------------*|
|
|      PM     PM     PM    PM
|   E  E   E  E   E  E E   E     E E E E E E E E   E E E     E Q    Q
|------------------------------|-----------------|-----------------------*|
|------------------------------|-----------------|---3-------------------*|
|------------------------------|-------------3---|-5---3b3.5-------------*|
|---9------7------5----3-------|-------3-4-5---5-|-----------5-----------*|
|------8------7------5-----2---|-3-4-5-----------|------------------5----*|
|------------------------------|-----------------|------------------3----*|




--------------------------------------------------------------------------------


Duration Legend
---------------
W - whole; H - half; Q - quarter; E - 8th; S - 16th; T - 32nd; X - 64th; a - acciaccatura
+ - note tied to previous; . - note dotted; .. - note double dotted
Uncapitalized letters represent notes that are staccato (1/2 duration)
Irregular groupings are notated above the duration line
Duration letters will always appear directly above the note/fret number it represents the
duration for.  Duration letters with no fret number below them represent rests.  Multi-
bar rests are notated in the form Wxn, where n is the number of bars to rest for.  Low
melody durations appear below the staff

Tablature Legend
----------------
 h   - hammer-on
 p   - pull-off
 b   - bend
 pb  - pre-bend
 r   - bend release (if no number after the r, then release immediately)
 /\  - slide into or out of (from/to "nowhere")
 s   - legato slide
 S   - shift slide
 - natural harmonic
[n]  - artificial harmonic
n(n) - tapped harmonic
 ~   - vibrato
 tr  - trill
 T   - tap
 TP  - trem. picking
 PM  - palm muting
\n/  - tremolo bar dip; n = amount to dip
 \n  - tremolo bar down
 n/  - tremolo bar up
/n\  - tremolo bar inverted dip
 =   - hold bend; also acts as connecting device for hammers/pulls
 <> - volume swell (louder/softer)
 x   - on rhythm slash represents muted slash
 o   - on rhythm slash represents single note slash

Misc Legend
-----------
 |  - bar
||  - double bar
||o - repeat start
o|| - repeat end
*|  - double bar (ending)
 :  - bar (freetime)
 $  - Segno
 &  - Coda
Tempo markers -  = BPM(8/16=s8/s16), where s8 = swing 8ths, s16 = swing 16ths
Tap to rate this tab
# A B C D E F G H I J K L M N O P Q R S T U V W X Y Z