Song name
# A B C D E F G H I J K L M N O P Q R S T U V W X Y Z

Lynyrd Skynyrd - Orr tab

O.R.R.- Lynyrd Skynyrd
tabbed by: Andrew

this is in standard tuning
INTRO (riff A)                           end riff A
e--0h1-1-0---2h3-3-2---0h1-1-0----0h1-0--|------------------------------------|
B---------------------------------------3|------------------------------------|
G----------------------------------------|------------------------------------|
D-0-----0---0-----0---0-----0---0------0-|------------------------------------|
A----------------------------------------|------------------------------------|
E----------------------------------------|------------------------------------|

play that once through and the another guitar pays this
the 2nd guitar keeps playing riff A over until chorus
e--------------------------------------------------------|
B-13b(14)-13--13b(14)-13b(14)----------------------------|
G-----------14---------------14-12-14-12b(13)-10-----10--|
D-----------------------------------------------12-10--12|
A--------------------------------------------------------|
E--------------------------------------------------------|

chorus you will have to listen to the song to get the timing right
 G C A


after this there is some piano stuff and some combination of those 3 chords i havent 
that part out yet (sorry)
Tap to rate this tab
# A B C D E F G H I J K L M N O P Q R S T U V W X Y Z