Song name
# A B C D E F G H I J K L M N O P Q R S T U V W X Y Z

Lynyrd Skynyrd - Tomorrows Goodbye tab

Help us improve GuitareTab! Take a short survey!
Song: Tommorow's Goodbye
Artist: Lynyrd Skynyrd
Tabber: John H- Johnrocs[RemoveThisAntiSpam]@aol.com

I bought the full 'Then and Now' album off iTunes, and when I heard this song, I knew I
had to play it. I looked around and to my suprise, couldnt find any tab for this
beautiful song, so here it is. Sometime I might figure out the lead...but not right now
;)

---

Tuning: Normal

Key:
h - Hammer On
p - Pull Off
o - Repeat 

Chords:

   G  D  Dsus4  Am  C
e--3--2----3----0---0
B--3--3----3----1---1
G--0--2----2----2---0
D--0--0----0----2---2
A--2--x----x----0---3
E--3--x----x----x---x

---

Intro (Acustic) x3 (Singing Starts after 3rd G)
Repeated Through Verse


  G        D  Dsus4  Am        C     D        G [Outro Only]
e------3-------2h3p2-----0-----------------o--3--------------|
B------3-------3---------1---------1-----3-o--3--------------|
G------0-0---2-----------2---2---------2---o--0--------------|
D----------0-----------2---2-----2---0-----o--0--------------|
A----2---------------0---------3-----------o--2--------------|
E--3---------------------------------------o--3--------------|
Related for Tomorrows Goodbye tab