Song name
# A B C D E F G H I J K L M N O P Q R S T U V W X Y Z

Lynyrd Skynyrd - Wino tab

Wino
Lynyrd Skynyrd
Skynyrds first...and last

Standard Tuning eBGDAE


Rough early swamp blues, cranked tube amp with 60ies distortion,
listen to the album and listen how they vary the fills around these
basic patterns:
Enjoy!

By Olof Ohrstrom
olofohrstrom@hotmail.com


Intro Riff&Verse (E`s and Bīs )

                     E                       B
---------------------------------------------------|
---------------------------------------------------|
-----------------12-13--13----------------7--8--8--|
------12--12-14-----14--14----------7-7-9----9--9--|
12-14---------------14--14------7-9----------9--9--|
--------------------12--12-------------------7--7--|

                E
---------------------------------------|
---------------------------------------|
----------------13--13-----------7-7---|
-------12-12-14-14--14-------7-9-7-7-9-|
-12-14----------14--14---7-9---------9-|
----------------12--12-----------------|


Break

   B  B   E  E

----------7--7----------------------------------|
----------9--9----------------------------------|
---8--8---9--9------------7-7-------------------|
---9--9---9--9-------7-9--7-7--9----------------|
---9--9---7--7---7-9-----------9----------------|
---7--7-----------------------------------------|

Chorus
   C B   G         A B    C B    G       A E
------------------------------------------------|
-------------------2----------------------------|
---5--4------------2-4----5-4--------------9----|
---5--4--5-5-5-5---2-4----5-4----5-5-5-5-7-9----|
---3--2--5-5-5-5-----2----3-2----5-5-5-5-7-7----|
---------3-3-3-3-----------------3-3-3-3-5------|

Break 2
   D     B   A    B  D  A  B
------------------------------------------------|
-------------2-2--------2-----------------------|
---7--7--4---2-2--4--7--2--4-4-4-4-4------------|
---7--7--4---2-2--4--7--2--4-4-4-4-4------------|
---5--5--2--------2--5-----2-2-2-2-2------------|
------------------------------------------------|


*Intro x2*

*Verse x2*

*Break x2*

*Verse x2*

*Chorus x2*

*Break 2 x many*

*Break x2*

*Verse x2*

*Chorus x2*

Break 2 til end*
Tap to rate this tab
# A B C D E F G H I J K L M N O P Q R S T U V W X Y Z