Song name
# A B C D E F G H I J K L M N O P Q R S T U V W X Y Z

Lynyrd Skynyrd - Cheatin Woman tab

Band: Lynyrd Skynyrd
Song: Cheatin' Woman
Album: Nuthin Fancy (1975)

INTRO:                 Em     A  G  Em     A  G  Em     A  G  Em
e-----------------------------------------------------------------|
B------3----------------------2--0---------2--0---------2--0------|
G--3/4---4/2-0----------------2--0---------2--0---------2--0------|
D---------------2-0----2-2-2--2--0--2-2-2--2--0--2-2-2--2--0--2---|
A-------------------2--2-2-2--0--2--2-2-2--0--2--2-2-2--0--2--2---|
E----------------------0-0-0--------0-0-0--------0-0-0--------0---|

RIFF 1        A
e---------------|
B---------------|
G--2p0--------2-|
D------2-0----2-|
A----------2--0-|
E---------------|

RIFF 2         A
e----------------|
B------3---------|
G--3/4---4/2-0---|
D--------------2-|
A--------------2-|
E--------------0-|

VERSE 1

N.C.                    Em   A G Em
Cheatin' woman make you crazy
Em       A     G          Em   A G Em
Cheatin' woman make you a fool
       A          G        A   G   A
She'll leave your heart so lonely
A               G                    Em   A G  Em   A
Brother there's nothin' that you can do
     B                 A
Well I can't stand the pain no more
G                 A
She don't want my love for sure
RIFF 1              A    B
She don't even want poor me
N.C.                     Em   A G Em
Oh knockin' on her front door
         A    G Em
Cheatin' woman

VERSE 2 w/ riff 2    Play chords same as verse 1

Why did you make me.........

RIFF 1                     A
Then you won't bother poor me
N.C.                        Em   A G   Em
You won't bother poor me no longer

VERSE 3 w/ riff 2     Play chords same as verses 1&2
Tap to rate this tab
# A B C D E F G H I J K L M N O P Q R S T U V W X Y Z