Song name
# A B C D E F G H I J K L M N O P Q R S T U V W X Y Z

Lynyrd Skynyrd - All I Can Do Is Wright About It tab

This is my version of "All I can do is wright about it", 
I took the struming intro and turned it into a picking melody!,
But if you want you can keep it the same and play it in the struming chords, G,D,Em,C. Injoy it!

   G          D           Em         C
[-----3-------2h3p2------------------------------] 
[------3-3--3-------3-0------0---------0h1p0-----]  Repeat until 
[--0----0----2------------0---0-0----0--------0--]  song starts!
[---0------0---------------2---2------2------2---]
[------------------------2----------3------------]
[-3----------------------------------------------]

    G      D      Em       C 
[-3-3-3--2-2-2--0-0-0--0-0-0-0-0-]
[-3-3-3--3-3-3--0-0-0--1-1-1-1-1-]  Listen to the song 
[-0-0-0--2-2-2--0-0-0--0-0-0-0-0-]  for the rythem and
[-0-0-0--0-0-0--2-2-2--2-2-2-2-2-]    chord changes!
[-2-2-2--0-0-0--2-2-2--3-3-3-3-3-]
[-3-3-3--0-0-0--0-0-0--0-0-0-0-0-]

Tap to rate this tab
# A B C D E F G H I J K L M N O P Q R S T U V W X Y Z