Song name
# A B C D E F G H I J K L M N O P Q R S T U V W X Y Z

Lynyrd Skynyrd - Searchin tab

#----------------------------------PLEASE NOTE---------------------------------#
#This file is the author's own work and represents their interpretation of the #
#song. You may only use this file for private study, scholarship, or research. #
#------------------------------------------------------------------------------##


Gtr I (E A D G B E) - 'Untitled'
Gtr II (E A D G B E) - 'Untitled'

 Intro
  Q=116
 4/4
       Gtr II
                       ~~~~~~~~~~~~~~~~~~~~~~~~~~~~~~               ~~~
  H    Q     +E  S S   W                         +Q    E E E E  E   E
|--------------------|-------------------------|-----------7--------7-|
|--------------------|-------------------------|---------7---7-10-----|
|------9b11r=(9)-7p0-|-------------------------|-------9--------------|
|--------------------|-9-----------------------|-(9)------------------|
|--------------------|-------------------------|----------------------|
|--------------------|-------------------------|----------------------|
|
|      Gtr I
| W                    E E E S  S  E  E  E S S    E  E E E E E  S S E
|--------------------|-------------------------|----------------------|
|--------------------|-------------------------|----------------------|
|--------------------|-------------------------|-------------2--------|
|--------------------|-----9------------12-----|-------7--------2p0---|
|--------------------|---9-----------12--------|-----7--------------2-|
|--------------------|-7-------10-10---------5-|--5------5------------|


 ~~~~~~~~~~~~~~~~~~~~~~~~~~~~~~~~~~~~~~~~~~~
  +W                          +H        +E   E  Q
|-(7)-----------------------|-(7)-------(7)-10-12b14r=======|
|---------------------------|-------------------------------|
|---------------------------|-------------------------------|
|---------------------------|-------------------------------|
|---------------------------|-------------------------------|
|---------------------------|-------------------------------|
|
|  E  E E S  S  E  E  E S S    E  E E E  E   E  S    S S S
|---------------------------|-------------------------------|
|---------------------------|-------------------------------|
|---------------------------|-------------------------------|
|-------9------------12-----|-------7--------2--2p===0------|
|-----9-----------12--------|-----7--------------------2p0--|
|--7--------10-10---------5-|--5------5---------------------|


                           ~~~~~~~~~~~~~~~~~~~~~~~~~~~~~~~~~~~~~
   +E   E  Q          +E   Q         +E       +H          E      +E    Q
|-(12)-10-12b14r=====(12)-12b14=====(12)---|-(12)r-------12b14==(12)r-----------|
|------------------------------------------|--------------------------17b19r====|
|------------------------------------------|------------------------------------|
|------------------------------------------|------------------------------------|
|------------------------------------------|------------------------------------|
|------------------------------------------|------------------------------------|
|
|   E   E  E    S  S   E   E      E   S  S     E   E E E  E       E    S    S E
|------------------------------------------|------------------------------------|
|------------------------------------------|------------------------------------|
|------------------------------------------|----------------------2-------------|
|----------9---------------------12--------|---------7-----------------2p===0---|
|-------9-----------------12---------------|-------7--------------------------2-|
|---7-------------10--10-----------------5-|---5-------5------------------------|


           ~~~~~~~~~~~~~~~~~~
   +E   E  H             +Q         E  E  E  E E E S S S S
|--------------------------------|---------------------------||
|-(17)-17-15------------(15)-----|---------------------------||
|--------------------------------|-16-14-16-14---------------||
|--------------------------------|---------------2-2p0-------||
|--------------------------------|---------------------2p0---||
|--------------------------------|---------------------------||
|
|   E   E  E S  S  E  E   E  S S    E  E  E  E E E S S S S
|--------------------------------|---------------------------||
|--------------------------------|---------------------------||
|--------------------------------|---------------------------||
|----------9-------------12------|--------7------2-2p0-------||
|-------9------------12----------|-----7---------------2p0---||
|---7----------10-10-----------5-|--5--------5---------------||


 Verse
  Gtr II
  E E E S  S  E  E  E S S   E E E E Q    S  S E
|-------------------------|---------------------|
|-------------------------|---------------------|
|-------------------------|---------------------|
|-----9------------12-----|-----7-7-----14-14---|
|---9-9---------12-12-----|---7---7-----14-14---|
|-7---7---10-10----10---5-|-5-----5-----12-12---|
|
| Gtr I
| Q   Q       Q     Q       Q   E Q   Q       E
|-------------------------|---------------------|
|-------------------------|---------------------|
|-------------------------|---------------------|
|-9----------12-----------|-7-----2-------------|
|-9----------12-----------|-7-----2-------------|
|-7----------10-----------|-5-----0-------------|


  E E E S  S  E  E  E S S   E E E E Q    S  S E
|-------------------------|---------------------|
|-------------------------|---------------------|
|-------------------------|---------------------|
|-----9------------12-----|-----7-7-----14-14---|
|---9-9---------12-12-----|---7---7-----14-14---|
|-7---7---10-10----10---5-|-5-----5-----12-12---|
|
| Q   Q       Q     Q       Q   E Q   Q       E
|-------------------------|---------------------|
|-------------------------|---------------------|
|-------------------------|---------------------|
|-9----------12-----------|-7-----2-------------|
|-9----------12-----------|-7-----2-------------|
|-7----------10-----------|-5-----0-------------|


  E E E S  S  E  E  E S S   E E E E Q    S  S E
|-------------------------|---------------------|
|-------------------------|---------------------|
|-------------------------|---------------------|
|-----9------------12-----|-----7-7-----14-14---|
|---9-9---------12-12-----|---7---7-----14-14---|
|-7---7---10-10----10---5-|-5-----5-----12-12---|
|
| Q   Q       Q     Q       Q   E Q   Q       E
|-------------------------|---------------------|
|-------------------------|---------------------|
|-------------------------|---------------------|
|-9----------12-----------|-7-----2-------------|
|-9----------12-----------|-7-----2-------------|
|-7----------10-----------|-5-----0-------------|


  E E E S  S  E  E  E S S   E E E E Q    E     +E
|-------------------------|--------------------------||
|-------------------------|--------------------------||
|-------------------------|--------------------------||
|-----9------------12-----|-----7-7-----12b13r(12)s==||
|---9-9---------12-12-----|---7---7------------------||
|-7---7---10-10----10---5-|-5-----5------------------||
|
| Q   Q       Q     Q       Q   E Q   Q         E
|-------------------------|--------------------------||
|-------------------------|--------------------------||
|-------------------------|--------------------------||
|-9----------12-----------|-7-----2------------------||
|-9----------12-----------|-7-----2------------------||
|-7----------10-----------|-5-----0------------------||


 Interlude
  ~
  W                         +Q    E  E  E  E E    E
|-------------------------|-------------------------|
|-------------------------|-------------------------|
|-------------------------|-------------------------|
|-9-----------------------|-(9)---9s11-11s12-----14-|
|-------------------------|-------------------------|
|-------------------------|-------------------------|
|
| E E E S  S  E  E  E S S    E  E E  E  E  E S S  E
|-------------------------|-------------------------|
|-------------------------|-------------------------|
|-------------------------|----------------2--------|
|-----9------------12-----|-------7----------2p0----|
|---9-----------12--------|-----7-----------------2-|
|-7-------10-10---------5-|--5-------5--------------|


       ~~~~~~~~~~~~~~~~          ~~
   +E  H           +Q     E      W
|-----------------------------|------------------------||
|-----------------------------|------------------------||
|-----------------------------|------------------------||
|-(14)s9-----------(9)----9s==|=21---------------------||
|-----------------------------|------------------------||
|-----------------------------|------------------------||
|
|   E  E E S  S  E  E   E S S    E E E E E E S S S S
|-----------------------------|------------------------||
|-----------------------------|------------------------||
|-----------------------------|------------------------||
|--------9-------------12-----|------7-----2-2p0-------||
|------9-----------12---------|----7-------------2p0---||
|---7--------10-10----------5-|--5-----5---------------||


 Verse 2
  $
  E E E S  S  E  E  E S S   E E E E Q    S  S E
|-------------------------|---------------------|
|-------------------------|---------------------|
|-------------------------|---------------------|
|-----9------------12-----|-----7-7-----14-14---|
|---9-9---------12-12-----|---7---7-----14-14---|
|-7---7---10-10----10---5-|-5-----5-----12-12---|
|
| Q   Q       Q     Q       Q   E Q   Q       E
|-------------------------|---------------------|
|-------------------------|---------------------|
|-------------------------|---------------------|
|-9----------12-----------|-7-----2-------------|
|-9----------12-----------|-7-----2-------------|
|-7----------10-----------|-5-----0-------------|


  E E E S  S  E  E  E S S   E E E E Q    S  S E
|-------------------------|---------------------|
|-------------------------|---------------------|
|-------------------------|---------------------|
|-----9------------12-----|-----7-7-----14-14---|
|---9-9---------12-12-----|---7---7-----14-14---|
|-7---7---10-10----10---5-|-5-----5-----12-12---|
|
| Q   Q       Q     Q       Q   E Q   Q       E
|-------------------------|---------------------|
|-------------------------|---------------------|
|-------------------------|---------------------|
|-9----------12-----------|-7-----2-------------|
|-9----------12-----------|-7-----2-------------|
|-7----------10-----------|-5-----0-------------|


  E E E S  S  E  E  E S S   E E E E Q    S  S E
|-------------------------|---------------------|
|-------------------------|---------------------|
|-------------------------|---------------------|
|-----9------------12-----|-----7-7-----14-14---|
|---9-9---------12-12-----|---7---7-----14-14---|
|-7---7---10-10----10---5-|-5-----5-----12-12---|
|
| Q   Q       Q     Q       Q   E Q   Q       E
|-------------------------|---------------------|
|-------------------------|---------------------|
|-------------------------|---------------------|
|-9----------12-----------|-7-----2-------------|
|-9----------12-----------|-7-----2-------------|
|-7----------10-----------|-5-----0-------------|


  E E E S  S  E  E  E S S   E E E E Q    E E
|-------------------------|-------------------||
|-------------------------|-------------------||
|-------------------------|-------------------||
|-----9------------12-----|-----7-7-----14----||
|---9-9---------12-12-----|---7---7-----14----||
|-7---7---10-10----10---5-|-5-----5-----12----||
|
| Q   Q       Q     Q       Q   E Q   Q    E
|-------------------------|-------------------||
|-------------------------|-------------------||
|-------------------------|-------------------||
|-9----------12-----------|-7-----2-----------||
|-9----------12-----------|-7-----2-----------||
|-7----------10-----------|-5-----0-----------||


 Chorus 2
  Gtrs I, II
  E E E S  S  E  E  E S S   E E E E E E S S E
|-------------------------|-------------------|
|-------------------------|-------------------|
|-------------------------|-----------2-------|
|-----9------------12-----|-----7-------2p0---|
|---9-----------12--------|---7-------------2-|
|-7-------10-10---------5-|-5-----5-----------|


                                          To Coda
  E E E S  S  E  E  E S S   E E E E E E S S S S
|-------------------------|-----------------------|
|-------------------------|-----------------------|
|-------------------------|-----------------------|
|-----9------------12-----|-----7-----2-2p0-------|
|---9-----------12--------|---7-------------2p0---|
|-7-------10-10---------5-|-5-----5---------------|


  Gtr II
  E E E S  S  E  E  E S S   E E E E E E S S E
|-------------------------|-------------------|
|-------------------------|-------------------|
|-------------------------|-----------2-------|
|-----9------------12-----|-----7-------2p0---|
|---9-----------12--------|---7-------------2-|
|-7-------10-10---------5-|-5-----5-----------|
|
| Gtr I
| E E E S  S  E  E  E S S   E E E E E E S S E
|-------------------------|-------------------|
|-------------------------|-------------------|
|-------------------------|-----------2-------|
|-----9------------12-----|-----7-------2p0---|
|---9-----------12--------|---7-------------2-|
|-7-------10-10---------5-|-5-----5-----------|


  E E E S  S  E  E  E S S   E E E E Q    S  S  E
|-------------------------|-------------14s10--------|
|-------------------------|-------------------12-----|
|-------------------------|--------------------------|
|-----9------------12-----|-----7--------------------|
|---9-----------12--------|---7----------------------|
|-7-------10-10---------5-|-5-----5------------------|
|
| E E E S  S  E  E  E S S   E E E E E E  S  S  S S
|-------------------------|--------------------------|
|-------------------------|--------------------------|
|-------------------------|--------------------------|
|-----9------------12-----|-----7-----2--2p=0--------|
|---9-----------12--------|---7----------------2p0---|
|-7-------10-10---------5-|-5-----5------------------|


 Guitar Solo
   ~~                  ~~~~~~~~~~~~~
   Q    E  E     E  E  Q        +E  Q    Q       +E   E   E
|---------------------10-----|-(10)----------------------17b18r|
|-12---12-10----12-12--------|----------17b19r==(17)p15--------|
|----------------------------|---------------------------------|
|----------------------------|---------------------------------|
|----------------------------|---------------------------------|
|----------------------------|---------------------------------|
|
|  E E  E  S  S  E  E  E S S     E  E E  H    E
|----------------------------|---------------------------------|
|----------------------------|---------------------------------|
|----------------------------|---------------------------------|
|-------9-------------12-----|--------7--2---------------------|
|----9-------------12--------|------7----2---------------------|
|--7---------10-10---------5-|---5-------0---------------------|


          ~~         ~~                 ~~~~         ~~~~
   +Q     E Q        Q    E      E     +Q     E     +Q    Q
|-(17)---17---------17--------|-17b19r(17)---17b18r(17)--17----|
|-----------------------------|--------------------------19----|
|-----------------------------|--------------------------------|
|-----------------------------|--------------------------------|
|-----------------------------|--------------------------------|
|-----------------------------|--------------------------------|
|
|   E  E  E S  S  E  E  E S S    E      E  E  H      E
|-----------------------------|--------------------------------|
|-----------------------------|--------------------------------|
|-----------------------------|--------------------------------|
|---------9------------12-----|------------7--2----------------|
|------9------------12--------|---------7-----2----------------|
|---7---------10-10---------5-|--5------------0----------------|


                                             ~~~~     ~~~~~~            ~~~~~~
   E     +Q     E     E  Q     e      E     +Q     E  Q       +Q        H E  E  S  S  S  S
|-17b18r(17)-----------------------|-17b19r(17)---14-17b19===(17)r---|-------------|
|-19b20r(19)-----------------------|---------------------------------|-------------|
|--------------16----14-------14---|---------------------------------|-------------|
|----------------------------------|---------------------------------|-------------|
|----------------------------------|---------------------------------|-------------|
|----------------------------------|---------------------------------|-------------|

17b19=======================14---------|
-----------17s19----17b18r-------------|
--------16-----------------------------|
---------------------------------------|
---------------------------------------|
---------------------------------------|

|
|  E      E  E  S  S  E  E  E  S S    E      E  E  H               E    E     E E
|----------------------------------|---------------------------------|------------|
|----------------------------------|---------------------------------|------------|
|----------------------------------|---------------------------------|------------|
|------------9-------------12------|------------7--2-----------------|----------9-|
|---------9-------------12---------|---------7-----2-----------------|--------9---|
|--7--------------10-10----------5-|--5------------0-----------------|--7---------|

--------------------------|
--------------------------|
--------------------------|
-----------12-------------|
--------12----------------|
--10-10--------------5----|


   +S   S  S     +S   S  S     +S   S  S     +S   S  S     +S   S     S    S
|------14------------14------------14------------14-17b19r(17)-17b19-17b19-----|
|-(17)----17b18r(17)----17b18r(17)----17b18r(17)-------------------------------|
|------------------------------------------------------------------------------|
|------------------------------------------------------------------------------|
|------------------------------------------------------------------------------|
|------------------------------------------------------------------------------|
|
|   E      E          E         H                                     E
|------------------------------------------------------------------------------|
|------------------------------------------------------------------------------|
|------------------------------------------------------------------------------|
|---------------------7---------2----------------------------------------------|
|----------7--------------------2----------------------------------------------|
|---5---------------------------0----------------------------------------------|


        ~~~~~~~~~~~~~~~~~                          ~~~
   E  E H            +Q        Q   Q    E  E  E    E
|----------------------------|-----------------------|
|----------------------------|-----------------------|
|----------------------------|-----------------------|
|-11s12-9------------(9)-----|-----9s==12-12-12---12s|
|----------------------------|-----------------------|
|----------------------------|-----------------------|
|
|  E  E E S  S  E  E  E  S S   E E E E  E  E  S S  E
|----------------------------|-----------------------|
|----------------------------|-----------------------|
|----------------------------|-------------2---------|
|-------9------------12------|-----7----------2p0----|
|-----9-----------12---------|---7-----------------2-|
|--7--------10-10----------5-|-5-----5---------------|


                                             D.S. al Coda
      ~~~~~~~~~~~~~~~~~~~~~~~~~~~~~~~~
   E  H            +Q      +E       W
|--------------------------------|------------------------||
|--------------------------------|------------------------||
|--------------------------------|-16---------------------||
|-14-11-----------(11)----(11)---|------------------------||
|--------------------------------|------------------------||
|--------------------------------|------------------------||
|
|  E  E E S  S  E   E   E   S  S    E E E E E E S S S S
|--------------------------------|------------------------||
|--------------------------------|------------------------||
|--------------------------------|------------------------||
|-------9--------------12--------|------7-----2-2p0-------||
|-----9------------12------------|----7-------------2p0---||
|--7--------10-10--------------5-|--5-----5---------------||


  &
  Gtrs I, II
  E E E S  S  E  E  E S S   E E E E E E S S E
|-------------------------|-------------------|
|-------------------------|-------------------|
|-------------------------|-----------2-------|
|-----9------------12-----|-----7-------2-0---|
|---9-----------12--------|---7-------------2-|
|-7-------10-10---------5-|-5-----5-----------|


  E E E S  S  E  E  E S S   E E E H E
|-------------------------|--------------|
|-------------------------|--------------|
|-------------------------|--------------|
|-----9------------12-----|-----7-2------|
|---9-----------12--------|---7---2------|
|-7-------10-10---------5-|-5-----0------|


  E E E S  S  E  E  E S S   E E E E E E S S E
|-------------------------|-------------------|
|-------------------------|-------------------|
|-------------------------|-----------2-------|
|-----9------------12-----|-----7-------2p0---|
|---9-----------12--------|---7-------------2-|
|-7-------10-10---------5-|-5-----5-----------|


  E E E S  S  E  E  E S S   E E E E E E S S S S
|-------------------------|-----------------------|
|-------------------------|-----------------------|
|-------------------------|-----------------------|
|-----9------------12-----|-----7-----2-2p0-------|
|---9-----------12--------|---7-------------2p0---|
|-7-------10-10---------5-|-5-----5---------------|


  Gtr II
  E E E S  S  E  E  E S S   E E E E E E S S E
|-------------------------|-------------------|
|-------------------------|-------------------|
|-------------------------|-----------2-------|
|-----9------------12-----|-----7-------2-0---|
|---9-----------12--------|---7-------------2-|
|-7-------10-10---------5-|-5-----5-----------|
|
| Gtr I
| E E E S  S  E  E  E S S   E E E E E E S S E
|-------------------------|-------------------|
|-------------------------|-------------------|
|-------------------------|-----------2-------|
|-----9------------12-----|-----7-------2p0---|
|---9-----------12--------|---7-------------2-|
|-7-------10-10---------5-|-5-----5-----------|


                           5/4
  E E E S  S  E  E  E S S   E E E E H     Q
|-------------------------|--------------------------||
|-------------------------|--------------------------||
|-------------------------|--------------------------||
|-----9------------12-----|-----7--------------------||
|---9-----------12--------|---7----------------------||
|-7-------10-10---------5-|-5-----5------------------||
|
| E E E S  S  E  E  E S S   E E E E E E S S E  E E
|-------------------------|--------------------------||
|-------------------------|--------------------------||
|-------------------------|--------------------------||
|-----9------------12-----|-----7-----2-2p0----2-2---||
|---9-----------12--------|---7----------------------||
|-7-------10-10---------5-|-5-----5------------------||


 4/4
         ~
  E E  E Q     Q     E
|---7----7-----------------|--------------|
|-7---10-------------------|--------------|
|--------------------------|--------------|
|--------------------------|--------------|
|--------------------------|--------------|
|--------------------------|--------------|
|
|--------------------------|--------------|
|--------------------------|--------------|
|--------------------------|--------------|
|--------------------------|--------------|
|--------------------------|--------------|
|--------------------------|--------------|
|
| Gtr I
| E E  E S  S  E  E  E S S   E E E H    E
|--------------------------|--------------|
|--------------------------|--------------|
|--------------------------|--------------|
|------9------------12-----|-----7-2------|
|---9------------12--------|---7---2------|
|-7--------10-10---------5-|-5-----0------|


|-------------------------|---------------|
|-------------------------|---------------|
|-------------------------|---------------|
|-------------------------|---------------|
|-------------------------|---------------|
|-------------------------|---------------|
|
|-------------------------|---------------|
|-------------------------|---------------|
|-------------------------|---------------|
|-------------------------|---------------|
|-------------------------|---------------|
|-------------------------|---------------|
|
| E E E S  S  E  E  E S S   E E E H    E
|-------------------------|---------------|
|-------------------------|---------------|
|-------------------------|---------------|
|-----9------------12-----|-----7-2-------|
|---9-----------12--------|---7---2-------|
|-7-------10-10---------5-|-5-----0-------|


Duration Legend
---------------
W - whole; H - half; Q - quarter; E - 8th; S - 16th; T - 32nd; X - 64th; a - acciaccatura
+ - note tied to previous; . - note dotted; .. - note double dotted
Uncapitalized letters represent notes that are staccato (1/2 duration)
Irregular groupings are notated above the duration line
Duration letters will always appear directly above the note/fret number it represents the
duration for.  Duration letters with no fret number below them represent rests.  Multi-
bar rests are notated in the form Wxn, where n is the number of bars to rest for.  Low
melody durations appear below the staff

Tablature Legend
----------------
 h   - hammer-on
 p   - pull-off
 b   - bend
 pb  - pre-bend
 r   - bend release (if no number after the r, then release immediately)
 /\  - slide into or out of (from/to "nowhere")
 s   - legato slide
 S   - shift slide
  - natural harmonic
[n]  - artificial harmonic
n(n) - tapped harmonic
 ~   - vibrato
 tr  - trill
 T   - tap
 TP  - trem. picking
 PM  - palm muting
\n/  - tremolo bar dip; n = amount to dip
 \n  - tremolo bar down
 n/  - tremolo bar up
/n\  - tremolo bar inverted dip
 =   - hold bend; also acts as connecting device for hammers/pulls
 <>  - volume swell (louder/softer)
 x   - on rhythm slash represents muted slash
 o   - on rhythm slash represents single note slash

Misc Legend
-----------
 |  - bar
||  - double bar
||o - repeat start
o|| - repeat end
*|  - double bar (ending)
 :  - bar (freetime)
 $  - Segno
 &  - Coda
Tempo markers -  = BPM(8/16=s8/s16), where s8 = swing 8ths, s16 = swing 16ths


***************************************************************************************
* Generated using Power Tab Editor by Brad Larsen - http://powertab.guitarnetwork.org *
***************************************************************************************
Tap to rate this tab
# A B C D E F G H I J K L M N O P Q R S T U V W X Y Z