Song name
# A B C D E F G H I J K L M N O P Q R S T U V W X Y Z

Lynyrd Skynyrd - Hell Or Heaven tab

Help us improve GuitareTab! Take a short survey!
iv been wantin to play this song out 4-ever but scince yall never had it on here heck i 
like ill put it on here myself so yah enjoy


E-------------------------------------------------------|
B-------------------------------1-------------------0---|
G------0---------------0-------0-------------------0----|
D-----0---------------0-------2-------------------0-----|
A----2---------------0-------3-------------------2------|
E---3---------------2-----------------------------------|
       Mama used to say to me, you can find your destiny
    f
E-------------------------------------------------------|
B-----------------------------------------1-----1-------|
G------2---------------0-----------------2-----0--------|
D-----3--3------------0--0--------------2-----2---------|
A----3----3----------2----0------------0-----3----------|
E---1---------------3-----------------------------------|
         Keep your feet planted on the ground


E-------------------------------------------------------------------|
B----------------------------------------1----1------0------0-------|
G--------------0----0----0-------0-------0----0------0------0-------|
D--------------0----0----0-------0-------2----2------0------0-------|
A--------------2----2----0-------0-------3----3------2------2-------|
E--------------3----3----2-------2----------------------------------|
is it gonna be,hell or heaven on earth,the choice is up to you...

E-------------------------------------------------------|
B----------------------------1-1----1-1-----------------|
G--2--2-2---0---0-----0------2-2----0-0-----------------|
D--3--3-3---0---0-----0------2-2----2-2-----------------|
A--3--3-3---2---2-----2------0-0----3-3-----------------|
E--1--1-1---3---3-----3---------------------------------|
Look in the sky the answer is clear..............
Related for Hell Or Heaven tab