Guitaretab - guitar tabs
Song name
# A B C D E F G H I J K L M N O P Q R S T U V W X Y Z

M Craft - I Got Nobody Wating For Me tab

----------------------------------------------------------------------------
                     I GOT NOBODY WAITING FOR ME  M. Craft
----------------------------------------------------------------------------

Tabbed by: Claire Winter
Email: mr_claire@hotmail.com
Tuning: EADGBE

Intro:

E|--------0--------------0-----------0-----------0------|
B|------3---3------0h2-----2-----3-----3-----3-----3----|
G|--4-4-------4--2-----2-----2-4---4-----2-4---4-----2--|
D|------------------------------------------------------| repeat
A|--2------------0--------------------------------------|
E|--------3--------------2-----3-----------3-----3------|

[ Tab from: http://www.guitaretab.com/m/m-craft/76709.html ]
Verse chords (played freely, with bass notes preceding):
    
E|--2----3----3----3----2----3----3----3----|
B|--3----3----0----2----3----3----0----2----|
G|--4----4----0----2----4----4----0----2----|
D|--4----5----2----2----4----5----2----2----|
A|--2----5----2----0----2----5----2----0----|
E|-------3----0--------------3----0---------|

E|--2----2----3----0-3----2----3----2----2----|
B|--2----3----3----3-2----3----0----2----2----|
G|--2----4----4----2-2----2----0----3----3----|
D|--0----4----5----2-2----0----2----4----4----| repeat
A|-------2----5----0-0--------------4----4----|
E|------------3---------------------2----2----|

Chorus:

E|----7----5----5----5----4----2----2----5----|
B|----8----5----7----7----5----2----3----7----|
G|----9----6----7----7----6----3----4----7----|
D|----9----7----7----7----6----4----4----7----|
A|----7----7----5----5----4----4----2--4-5----|
E|---------5-----------------3-2--------------|

E|----7----5----5----5----4---3----2----2----|
B|----8----5----7----7----5----3----2----2----|
G|----9----6----7----7----6---4----3----3----|
D|----9----7----7----7----6----5----4----4----|
A|----7----7----5----5----4----5----4----4----|
E|---------5-------------------3----2----2----|

Repeat as necessary
Related for I Got Nobody Wating For Me tab