Song name
# A B C D E F G H I J K L M N O P Q R S T U V W X Y Z

M Ward - Rollercoaster tab

the most important thing is to catch the rhythm
just listen to the record

  |         |         |       |
e------------------------------------|
B-----------------------------2-0----|
G-2-----0-2-------------4--4---------|
D-----4-----4--2--0------------------|
A------------------------------------|
E------------------------------------|
 D	    D         G       A

D	      G	 A	 D
You're like a	 rollercoaster
You got heavy metal wings
You could make a dead man scream
You're like a rollercoaster

(something like: D Dsus2 D Dsus4)

Rollercoaster, we was the best of times
Rollercoaster, we was the worst of times too
Because you lift me up so high high high
D    G        Em           A
It's the most unbelievable ride

A7 riff:
-----------0---3----|
-------2-----2------|
---0-----2----------|
-----2--------------|
-0------------------|
--------------------|


You're like a rollercoaster
You give me heavy metal dreams
You can make a dead man scream
You're like a rollercoaster

Rollercoaster, can't find my friends on the ground
Just lift me up and send me spiralling down
Because you lift me up so high high high
It's the most unbelievable ride

You're like a rollercoaster
Heavy metal wings
Make a dead man scream
Rollercoaster
Rollercoaster
Rollercoaster
Tap to rate this tab
# A B C D E F G H I J K L M N O P Q R S T U V W X Y Z