Song name
# A B C D E F G H I J K L M N O P Q R S T U V W X Y Z

M Ward - Jailbird tab

jailbird by M. Ward
standard tuning.
very simple. any questions or coments email me
wideawake98@hotmail.com 
my request to you is to simply...enjoy

|----------------------------------------------|
|----------------------------------------------|
|----------------------------------------------|
|--7-5---------------------/7-5-----/7-7-5-----|
|--------7-5---3-3-3-5/7--------3-3---------3--|
|----------------------------------------------|


|----------------------------------------------|
|----------------------------------------------|
|----------------------------------------------|
|---------------------------------5-7---5------| x2
|--5-5/7--5-5/7-5--5/7--5-5-H7-P5-----------7--|
|----------------------------------------------|
Tap to rate this tab
# A B C D E F G H I J K L M N O P Q R S T U V W X Y Z