M Ward - For Beginners tab

-------------------------------------------------------------------------------
			    M.Ward - For Beginners
-------------------------------------------------------------------------------


Tabbed By : Adam Kopcinski
e-mail: solarflux@hotmail.com

Tuning: standard
Key of C

Chords:
Verse  - C, F, G
Bridge - Amin, Emin, F, G

Main Riff: 
E|------------------------------------------------------------|
B|------------------------------------------------------------|
G|--0---0h2----0-----0-----0---0h2--0-----0-------------------|
D|---------------0h2-------------------2----------------------|
A|------------------------------------------------------------|
E|------------------------------------------------------------|


Bridge solo:
E|------------------------------------------------------------|
B|------5-------5-5----888----6-6----101010---888/-10-8-10/13-|
G|----5---5----4-4-4/9-------5-5-5/10--------7----------------|
D|------------------------------------------------------------|
A|------------------------------------------------------------|
E|------------------------------------------------------------|

E|----8----5--------3-----------------------------------------|
B|---------------3-----------6b--6b-5--(0)(3)-----------------|
G|------------------------------------------------------------|
D|------------------------------------------------------------|
A|------------------------------------------------------------|
E|------------------------------------------------------------|



| /  slide up
| h  hammer-on
| | ( ) Ghost note
| b  bend
=============================================================================
Tap to rate this tab
 
# A B C D E F G H I J K L M N O P Q R S T U V W X Y Z