Guitaretab - guitar tabs
Song name
# A B C D E F G H I J K L M N O P Q R S T U V W X Y Z

M Ward - Ill Be Yr Bird tab

Capo 1
[ Tab from: http://www.guitaretab.com/m/m-ward/60057.html ]
  verse
e|---------------------------------------------------------------------------|
B|---------------------------------------------------------------------------|
G|-2-2-2-2-2---2-2-2-2-2-2-2---2-2-2-2-2-2-2-2h4-2---7-7---7-7-2-2-2-2-2-----|
D|-0-2-0-4-4---4-4-0-2-0-5-5---5-5-0-2-0-0-0---0-0-4-5-5---5-5-0-2-0-4-4-----|
A|-0-0-0-0-0---0-0-0-0-0-0-0---0-0-0-0-0-0-0---0-0---5-5---5-5-0-0-0-0-0-----|
D|-0-0-0-0-0---0-0-0-0-0-0-0---0-0-0-0-0-0-0---0-0---5-5---5-5-0-0-0-0-0-----|
                                                        2x
e|-------------------------------------------------------|-------------------|
B|-------------------------------------------------------|-------------------|
G|-2-2-2-2-2-2-2---2-2---2-2-2-2---2-2---------2-2---2-2-|-------------------|
D|-4-4-0-2-0-2-2---2h4---4-2-0-0---0-0-----5---4-0---0-0-|-------------------|
A|-0-0-0-0-0-0-0---0-0---0-0-0-0---0-0----7----0-0---0-0-|-------------------|
D|-0-0-0-0-0-----------------0-0---0-0-5h7-----0-0---0-0-|-------------------|
  bridge                                                       strum last two
e|---------------------------------------------------------------------------|
B|-----------------------------------------------------------------7---------|
G|-2-2-2-2-2-2-2-2-----------------6-6-6-6-6-6-6-2-2-2-2-2-2-2-2-2-7---2-----|
D|-0-0-0-0-0-0-0-0-5-5-5-5-4-4-4-4-----------------2-2-2-2-2-2-2-0-5---0-----|
A|-----------------4-4-4-4-4-4-4-4-2-2-2-2-2-2-2-0-0-0-0-0-0-0-0-0-5---0-----|
D|-----------------------------------------------------------------5---0-----|

e|-----------------|
B|-----------------|
G|---------2-2-2-2-|
D|-----5---4-0-0-0-|
A|----7----0-0-0-0-|
D|-5h7-----0-0-0-0-|


Form:
Intro (same as bridge)
Verse 2x
Bridge
Verse and fade out

this song is pretty simple once you get the hang of it. i think i got most of it right. 
to the song to get the rhythm.

-the wurst
Related for Ill Be Yr Bird tab
Advertisement will be closed in 10 seconds