Song name
# A B C D E F G H I J K L M N O P Q R S T U V W X Y Z

M Ward - Oh Take Me Back tab

-------------------------------------------------------------------------------
			     Oh take me back - M. Ward
-------------------------------------------------------------------------------
Tabbed by:Travis 
Email:desolationrow128@netscape.net

Tuning:standard

CAPO 2ND FRET

INTRO 
(constant rhythm)
   C            F              C          G           C
e|-0------------1--------------0----------3-----------0----------------------|
B|-1------------1--------------1----------0-----------1----------------------|
G|-0------------2--------------0----------0-----------0----------------------|
D|-2------------3--------------2----------0-----------2----------------------|
A|-3------------1--------------3----------2-----------3----------------------|
E|-0------------1--------------0----------3-----------0----------------------|

e|---------------------------------------------------------------------------|
B|----------------1h3-1-1h3-1-----------------3/5-4-3-1----------------------|
G|-----0---------------------------------------------------------------------|
D|-------4-3-2---------------------------------------------------------------|
A|---------------------------------------------------------------------------|
E|---------------------------------------------------------------------------|

verse

C         Am                          C
Oh just a bird that evenin sun has goo-one 
   Dm                              Am
Oh just a bird that evenin sun has gone
      G
Gone down beyond the mountain
                         Am 
and it wont be back till morn

repat intro

verse

C  Am                             C
Oh hand me that long distance pho-oone
   Dm
Oh hand me that long distance phone
G                                Am 
Gunna talk to my honey all night long

repeat intro

There is one more verse but it's inaudible, then fades out
Tap to rate this tab
# A B C D E F G H I J K L M N O P Q R S T U V W X Y Z