Song name
# A B C D E F G H I J K L M N O P Q R S T U V W X Y Z

M Ward - Fuel For Fire tab

M.Ward
Fuel For Fire

Tabbed by Adam Kopcinski 2/12/2007

                   Intro Melody:

e|-----------5h7-5------------------------------------|
B|--3--5--7----------7--5-----------------------------|
G|----------------------------7-------(strum-D)-------|
D|----------------------------------------------------|
A|----------------------------------------------------|
E|----------------------------------------------------|

e|-----------5h7-5----------------3-------------------|
B|--3--5--7----------7--5-----3/5---------------------|
G|------------------------------------(strum Emin)----|
D|----------------------------------------------------|
A|----------------------------------------------------|
E|----------------------------------------------------|

e|-----------5h7-5----------5-------------------------|
B|--3--5--7----------7--5-----(strum-A-)-5-5-3-5------|
G|----------------------------------------------------|
D|----------------------------------------------------|
A|----------------------------------------------------|
E|----------------------------------------------------|

e|----------5-------------------2-2--3-3--5-----------|
B|--3--5/7-----7---5------------3-3--5-5--7-----------|
G|----------------------7-------2-2--4-4--7-----------|
D|----------------------------------------------------|
A|----------------------------------------------------|
E|----------------------------------------------------|


          D          Emin           A                   D
my heart is...I've traveled...the song is...got lonsesome..
    
          D          Emin           A                   D
got 45's to play...got books to...the stories...got lonesome...

          G        F#min         Emin  A   D   
fuel for fire a bitter...to a sweet sweet.....
fuel for the sour note.......the.orchestral...
fuel for fire uncomfortable pauses....last words.....
fuel for fire missing persons....small small...

Ect.
Tap to rate this tab
# A B C D E F G H I J K L M N O P Q R S T U V W X Y Z