Song name
# A B C D E F G H I J K L M N O P Q R S T U V W X Y Z

M2 - For Fun tab

-------0-0-0--0-0-0-0-0-0--0------0-0-0--0-0-0-0-0-0----------|
-2-----2-2-2--2-2-2-2-2-2--0------0-0-0--0-0-0-0-0-0----------|
---1---1-1-1--1-1-1-1-1-1--0------0-0-0--0-0-0-0-0-0----------|
-------0-0-0--0-0-0-0-0-0--0------0-0-0--0-0-0-0-0-0----------|
-0-----0-0-0--0-0-0-0-0-0--0------0-0-0--0-0-0-0-0-0----------|
---------------------------0-3-3-----------------------0h2-2--|


----0-0-0--0-0-0-0-0-0----------------------------------------|
----0-0-0--0-0-0-0-0-0----------------------------------------|
----0-0-0--0-0-0-0-0-0----------------------------------------|#REPEAT ALL#
----0-0-0--0-0-0-0-0-0----------------------------------------|
----0-0-0--0-0-0-0-0-0----------------------------------------|
-0------------------------------------------------------------|
Tap to rate this tab
 
# A B C D E F G H I J K L M N O P Q R S T U V W X Y Z