Song name
# A B C D E F G H I J K L M N O P Q R S T U V W X Y Z

M83 - Soon My Friend tab

Standart Tunning

Intro:

e-----------------0-----
B--------3-----------3--
G-----------0-----------
D----2---------2--------
A--3--------------------
E-----------------------


(Down Strokes)

C          Gm        F           C
   I'll be yours,        Sunday

C          Gm        F           C
   I'll be yours,        Sunday

C          Gm        F           C
   I'll be yours,        Sunday

C          Gm        F           C
   I'll be yours,        Sunday


Outro:

e-------------------
B---------3---------
G-------------0-----
D-----2-------------
A--3----------------
E-------------------


Sunday...
Sunday...
Sunday...
Sunday...
Tap to rate this tab
# A B C D E F G H I J K L M N O P Q R S T U V W X Y Z