Song name
# A B C D E F G H I J K L M N O P Q R S T U V W X Y Z

Maa Vue - Nyob Ua Kev chords

Highlighted       Show chord diagrams
Nyob ua Kev By Maa Vue

Tabbed By: yyan007@hotmail


Capo on 3rd


CHORDS:
C-   032010
Am-  002210
Dm-  000231
G-   320033


PICKING PATTERN:

    C               
e|-----0-----------0-------------|
B|-----1-----------1-------------|
G|---0---0------0----0-----------|
D|-------------------------------|
A|-3---------3-------------------|
E|-------------------------------|


    Am              
e|-----0-----------0-------------|
B|-----1-----------1-------------|
G|---2---2------2----2-----------|
D|-------------------------------|
A|-0---------0-------------------|
E|-------------------------------|

    Dm              
e|-----1-----------1-------------|
B|-----3-----------3-------------|
G|---2---2------2----2-----------|
D|-0---------0-------------------|
A|-------------------------------|
E|-------------------------------|

    G               
e|-----3-----------3-------------|
B|-----3-----------3-------------|
G|---0---0------0----0-----------|
D|-------------------------------|
A|-----------2-------------------|
E|-3-----------------------------|

C                          Am
  Yog tias kuv noog koj hais
                      Dm
Tias puas muaj ib hnub
                  G             C
Wb, tau nyob ua kev, ua ib nkawm
                    Am                  Dm
Nyob hauv ib lub zeb, koj puas tshai teb
              G
Koj hais tias, 


Pre-Chorus:

C               Am
lub yav pem suab
                Dm                     G
Yeej tshuav ntev, thaum txoj hnub ntawm
                           C
Cia kuv tuav koj txhais tes
              Am           Dm        G
Mus tag ib sib, mus tag ib txhim


CHORUS:(Strumming)
C  G  Am  Dm

C                G                 Am
Wb txoj kev hlub, los deb npaum nov
                  Dm                      C
Yeej muab qee zaum wb yeej chim rau ib leeg
                   G                    Am 
Tab sib wb yeej mus dhau, wb yeej tsis swb
               Dm                   C         G
Rau ib yam khoom ua los dhau wb txoj kev
                  Am        Dm
Wb yeej tsis swb yooj yim


Verse: (picking again)

C                         Am
Txob mloog tej lus lawm hais
                  Dm                 G
Kom ua wb lub neej muab kev txom nyem
            C               Am            Dm    
Kuv tseeg koj, muab tas nrog kuv txoj siab
                   G
Cia nraim ntawm koj


Pre-chorus:

C          Am                     Dm
Wb lub neej yuav muaj kev kaj siab
                   G                     C
Wb yuav hluag ntxig, sib hlub tag ib txim
                    Am                   Dm     G
Txhua xyooj dhau los, txhua xyooj dhau mus


Chorus: (Strumming)
C  G  Am  Dm

C               G                   Am
Wb txoj kev hlub, los deb npaum nov
                  Dm                        C
Yeej muab qee zaum, wb yeej chim rau ib leeg
                       G                  Am
Tab sib wb yeej mus dhau, wb yeej tsis swb
                Dm                       C      G
Rau, ib yam khoom, ua los dhau wb txoj kev
                  Am   Dm                    
Ua los dhau wb txoj kev, wb yeej yuav nyob ua ke
Tap to rate this tab
# A B C D E F G H I J K L M N O P Q R S T U V W X Y Z