Song name
# A B C D E F G H I J K L M N O P Q R S T U V W X Y Z

Maaike Ouboter - Dat Ik Je Mis tab

DAT IK JE MIS           Maaike Ouboter

Tabbed by inimeany@hotmail.com

Capo II

Intro
   Em          D/F#        G
E-------------------------------------------|
B--------------------------------------0----|
G------0-----0-----0-----0-----0-----0------|
D----2-----2-----0-----0-----0-----0--------|
A-------------------------------------------|
E--0-----0-----2-----2-----3-----3-----3----|


Couplet (riff 1)
   Em          D/F#        G
E---------------------------------------------------|
B---------------------------------------------------|
G------0-----0-----0-----0-----0-----0-----0-----0--|
D----2-----2-----0-----0-----0-----0-----0-----0----|
A---------------------------------------------------|
E--0-----0-----2-----2-----3-----3-----3-----3------|

Pre-chorus (riff 2)
  Am           Em/B        C
E---------------------------------------------------|
B---------------------------------------------------|
G------2-----2-----0-----0-----0-----0-----0-----0--|
D----2-----2-----0-----0-----2-----2-----2-----2----|
A--0-----0-----2-----2-----3-----3-----3-----3------|
E---------------------------------------------------|

Refrein
   Am                      C
E-----------------------------------------------------|
B--------1-----0---1-------------1-----------1--------|
G------2-----2-----------2-----0-----0-----0-----0----|
D----2-----2-----2-----2-----2-----2-----2-----2------|
A--0-----0-----0-----0-----3-----3-----3-----3--------|
E-----------------------------------------------------|

   Em                        D6
E------------------------------------------------------|
B---------0-----------0------------0-----0-----0-------|
G-------0-----0-----0-----0------2-----2-----2-----2---|
D-----0-----0-----0-----0------0-----0-----0-----0-----|
A---2-----2-----2-----2--------------------------------|
E----------------------------2-----2-----2-----2-------|

    + riff 2

DAT IK JE MIS           Maaike Ouboter

Capo op 2 ( tokkel: p i m ) intro Em  D/F#   G

   Em                               D/F#
Je kust me, Je sust me, Omhelst me, gerust me
   G
Je vangt me, Verlangt me, Oneindig ontbangt me
   Em                               D/F#
Je roept me, Je hoort me, Je redt en verstoort me
   G
Gelooft me, Berooft me, Verstikt en verdooft me
   Am                          Em/B
Je ademt en leeft me, Siddert en beeft me
   C
Vertrouwt me, Beschouwt me als mens En weerhoudt me
    Em                         D/F#
Van bozige dromen Die op komen dagen
   G
De eenzame vragen van eindig geluk

   Em         D/F#        G         G

   Em                               D/F#
Met je krullen, als nacht, Hoe je praat, hoe je lacht
   G
Hoe je stem zo dichtbij als een engel verzacht
   Em                               D/F#
In mijn dromen doorstromen, Oneindige leegtes
   G
Je remt me, Je temt me, Je roert en beweegt me
   Am                          Em/B
Ik mis je, Ik mis je, Ik grijp je, ik gris je
   C
Ik wil je, Bespeel je, Ik roer en beveel je
   Em                               D/F#
Om bij me te blijven In donkere nachten
   G
Om niet meer te smachten naar jou

   Em        D/F#       G           G

REFREIN:

Am         C
Laat me los
   Em      D/F#
Ik moet nu alleen
   Am                                            C
en houd me vast als het nodig is    In gedachten
   Em                                D/F#
ik zoek je in alles om me heen
   Am                          Em/B     C
maar al denk ik soms dat het zo beter is
   Am                          Em/B        C (ritenuto)
Kan ik het niet helpen dat ik je soms mis


   Em  (a tempo)                 D/F#
Ik smoor je, Bevroor je, Verlos, en verloor je
  G
Weg naar een andere plek maar ik hoor je
   Em                               D/F#
Omarm je, Verwarm je, Ik zie je en voel je
    G
Ik aai je, ik streel je, Ik knuffel en kroel je
   Am                          Em/B
Je rijpt me, Begrijpt me, Verwart en misleidt me
   C
Het schrikt me soms af Hoeveel ik op je lijk nu
   Em                               D/F#
Mijn glimlach, Mijn tranen, Mijn liefde voor leven
  G
Het spijt me van alles, Kom help en bevrijd me

   Em        D/F#       G           G

HERHAAL REFREIN

   Em                               D/F#
Ik kus je, Ik sus je, Ik doof en ik blus je
  G
Je blijft heel dichtbij me Maar in mijn hoofd rust je

Em        D/F#       G
Tap to rate this tab
 
# A B C D E F G H I J K L M N O P Q R S T U V W X Y Z