Song name
# A B C D E F G H I J K L M N O P Q R S T U V W X Y Z

Maaya Uchida - Soushou Innocence Akuma No Riddle Opening Song tab

Tabbed by kuchiki1o
dying1nsyd_21@live.ca
Band/Artist: Maaya Uchida (http://uchidamaaya.jp/)
Song Title: Soushou Innocence

This is my second tab and hopefully you will like it. This is the whole opening for the anime Akuma
no Riddle Opening, which is entitled Soushou Innocence. I spent days before completing this since I
have school and stuff.  I see no one has posted a tab regarding this awesome opening, so I'm here to
share this. Although it is not as accurate like the opening, especially the ending part of intro,
but I have tried to match the sound at least. Obviously, this is only for one guitar, you can use
this as a cover, but credit the tab back to the owner. For I have tried my best to complete this.
That would be great if you did. As I go on the tab I will also add some a brief explanation if it
is needed. I will appreciate it if ever you find this helpful, so let's get down to this tab.

Just corrected the wrong notes from the first one hopefully it now matches the song and I didn't
notice that sorry.

Legends
b - bend
/ - slide up
\ - slide down
PM or - - palm mute
~ - vibrato
0 - open string

Verse

e|-----------------12-12-12------------------15/16---16/17---17/18---18/19--19----|
G|-----------------15b15b15b------------------------------------------------------|
B|---------------------------14b14b-14-12--12------13------14------15-------------|
D|--2222---2222-------------------------------------------------------------------|
A|--2222---2222-------------------------------------------------------------------|
E|--0000---0000-------------------------------------------------------------------|


e|--12--12--12---15---15--15--/14141414/20--------------|
G|--15b-15b-15b--18b--18b-18b-/13131413/19-/19-\--/19---| If ever you don't like ending part of this
B|-----------------------------------------/18-\--/18---| well you can end it with the way you want it.
D|------------------------------------------------------|
A|------------------------------------------------------|
E|------------------------------------------------------|


alternate ending of the intro then do the pick slide on the bass strings twice i guess?
|--14141414--00--| might as well ignore this part T^T
|--13131313--00--|
|----------------|
|----------------|
|----------------|
|----------------|


PM when you play this or either it doesn't have to, so it's your choice

e|----------------------------------|
G|----------------------------------|
B|----------------------------------| x4
D|----------------------------------|
A|----------------------------------|
E|-0-0-0-0-6-6-6-6-5-5-5-5-3-3-3-3--|

       A     Bb B

e|---------------------------|
G|---------------------------|  if the chords confuses on this part there i added the 
B|---------------------------|  chord above
D|--2222222-343434----5-2----|  PM for open strings
A|--0000000-121212----5-2----|
E|-----------------0003-0----|

     Bb  A   G   E                                              Pre-Chorus (down 
strumming for this one)
e|-------------------|                                   |----------|    |--------------|
G|-------------------|                                   |----------|    |--------------|
B|-------------------|                                   |----------| or |--------------|
D|--888-777-555-222--|                                   |-22222222-|    |---77777777---|
A|--888-777-555-222--|                                   |-00000000-|    |---77777777---|
E|--666-555-333-000--|                                   |----------|    |---55555555---|

x4 then when you are at the fourth time playing
this part instead of using E change it to A
which ever you prefer


    B            A            Bb B B Bb A G
e|-------------------------------------------|
B|-------------------------------------------|
G|-------------------------------------------|
D|--4~----2-2-2-2-2-2-2-2-----3434-43-2-5~---|
A|--2~----0-0-0-0-0-0-0-0-----1212-21-0-5~---|
E|--------------------------------------3~---|


Chorus
                                   (starting in this part the open strings are PM or 
play without it)
e|-------------------------------------------------------------------------------------------------|
B|-------------------------------------------------------------------------------------------------|
G|-------------------------------------------------------------------------------------------------|
D|--2222-555555-22222-5555-4444-2222-55555-2222-3-4-4--5555-4444-2222-2222-5555-4444----3---4---5--|
A|--2222-555555-00000-3333-2222-2222-55555-0000-1-2-2--3333-2222-2222-0000-3333-2222----3---4---5--|
E|--0000-333333-----------------0000-33333-----------------------0000-----------------001-002-003--|


e|-------------------------------|
B|-------------------------------|
G|-------------------------------|  strumming pattern is different from here on
D|---5555-4444-2222-5555--5\-----|  just listen to the song to match it
A|---3333-2222-2222-5555--3\-----|
E|-------------0000-3333---------|


e|-------------12-11-10-----------------------------13---15---16---20---|
B|-----------------------14-13-12--11--12-12----------------------------|
G|----------12-------------------------12-12--12--12---14---15---19-----|
D|-------14-------------------------------------------------------------|
A|-/14~-----------------------------------------------------------------|
E|----------------------------------------------------------------------|


e|--------12-11-10-----------(15)(15)--1213----1314----1415-----18--19----|
B|------------------14-13-12--15-15-----------------------------17--17----|
G|-----12---------------------12-12--9------10------11------12------------|
D|--14--------------------------------------------------------------------|
A|------------------------------------------------------------------------|
E|------------------------------------------------------------------------|

Thank you for giving a time by visiting this page ^_^!
Tell me what do you think about this tab or email me.
Tap to rate this tab
# A B C D E F G H I J K L M N O P Q R S T U V W X Y Z